Song name
# A B C D E F G H I J K L M N O P Q R S T U V W X Y Z

Dead By April - Found Myself In You tab

Band: Dead By April
Song: Found Myself In You
Tuning: Drop B
Tabber: Andreas Karlsson

INTRO RIFF:
C#|-------------------------------|
G#|-------------------------------|
E |--9-7-----------9-7------------|
B |-----10-9-10-------10-9-10-----|
F#|-7----------8--7-----------8p7-|
B |7-------------7----------------| x2

C#|-------------------|
G#|-----Dist----------|
E |-------------------|
B |3333333333333333---|
F#|3333333333333333---|
B |3333333333333333---|

VERSE:
C#|---------------------------------|
G#|---------------------Dist--------|
E |--9-7----------------------------|
B |-----10-9-10-9-3333333333333333--|
F#|-7-------------3333333333333333--|
B |7--------------3333333333333333--|

C#|---------------------------------|
G#|---------------------Dist--------|
E |--9-7----------------------------|
B |-----10-9-10-9-3333333333335555--|
F#|-7-------------3333333333335555--|
B |7--------------3333333333335555--|

C#|---------------------------------|
G#|---------------------Dist--------|
E |--9-7----------------------------|
B |-----10-9-10-9-333333333333x555--|
F#|-7-------------333333333333x555--|
B |7--------------333333333333x555--|
                               .
C#|---------------------------------|
G#|--------------Dist---------------|
E |---------------------------------|
B |333333333333x555-33333333x555x555|
F#|333333333333x555-33333333x555x555|
B |333333333333x555-33333333x555x555|
                .            ... ...

CHORUS 1: DIST!
C#|---------------------------------|
G#|---------------------------------|
E |---------------------------------|
B |77777777777777773333333333333335-|
F#|77777777777777773333333333333335-|
B |77777777777777773333333333333335-|

C#|---------------------------------|
G#|---------------------------------|
E |---------------------------------|
B |77777777777777773333333355555555-|
F#|77777777777777773333333355555555-|
B |77777777777777773333333355555555-|

C#|---------------------------------|
G#|---------------------------------|
E |---------------------------------|
B |77777777777777773333333333333335-|
F#|77777777777777773333333333333335-|
B |77777777777777773333333333333335-|

C#|---------------------------------|
G#|---------------------------------|
E |---------------------------------|
B |77777777777777775555555533333333-|
F#|77777777777777775555555533333333-|
B |77777777777777775555555533333333-|

BRIDGE: (Listen for timing)
C#|---------------------------------|
G#|---------------------------------|
E |---------------------------------|
B |---------------------------------|
F#|7-777-777-777--7-7-77-77---------|
B |7-777-777-777--7-7-77-77---------| x8
     ... ... ...      .. .. 

VERSE 2:
C#|---------------------------------|
G#|---------------------Dist--------|
E |--9-7----------------------------|
B |-----10-9-10-9-3333333333333333--|
F#|-7-------------3333333333333333--|
B |7--------------3333333333333333--| x2

C#|---------------------------------|
G#|---------------------Dist--------|
E |--9-7----------------------------|
B |-----10-9-10-9-3333333333335555--|
F#|-7-------------3333333333335555--|
B |7--------------3333333333335555--|

C#|---------------------------------|
G#|---------------------Dist--------|
E |--9-7----------------------------|
B |-----10-9-10-9-333333333333x555--|
F#|-7-------------333333333333x555--|
B |7--------------333333333333x555--|
                               .
C#|---------------------------------|
G#|--------------Dist---------------|
E |---------------------------------|
B |333333333333x555-33333333x555x555|
F#|333333333333x555-33333333x555x555|
B |333333333333x555-33333333x555x555|
                .            ... ...

CHORUS 2: DIST!
C#|---------------------------------|
G#|---------------------------------|
E |---------------------------------|
B |77777777777777773333333333333335-|
F#|77777777777777773333333333333335-|
B |77777777777777773333333333333335-|

C#|---------------------------------|
G#|---------------------------------|
E |---------------------------------|
B |77777777777777773333333355555555-|
F#|77777777777777773333333355555555-|
B |77777777777777773333333355555555-|

C#|---------------------------------|
G#|---------------------------------|
E |---------------------------------|
B |77777777777777773333333333333335-|
F#|77777777777777773333333333333335-|
B |77777777777777773333333333333335-|

C#|---------------------------------|
G#|---------------------------------|
E |---------------------------------|
B |77777777777777775555555533333333-|
F#|77777777777777775555555533333333-|
B |77777777777777775555555533333333-|

BRIDGE: (Listen for timing)
C#|---------------------------------|
G#|---------------------------------|
E |---------------------------------|
B |---------------------------------|
F#|7-777-777-777--7-7-77-77---------|
B |7-777-777-777--7-7-77-77---------| x8
     ... ... ...      .. .. 

BRIDGE 2: (NO guitar)

PRE-CHORUS:
C#|---------------------------------|
G#|---------------------------------|
E |---------------------------------|
B |----------------3333333333333333-|
F#|7-7-7-7---------3333333333333333-|
B |7-7-7-7---------3333333333333333-| 
   . . . .
CHORUS 3: DIST!
C#|---------------------------------|
G#|---------------------------------|
E |---------------------------------|
B |77777777777777773333333333333335-|
F#|77777777777777773333333333333335-|
B |77777777777777773333333333333335-|

C#|---------------------------------|
G#|---------------------------------|
E |---------------------------------|
B |77777777777777773333333355555555-|
F#|77777777777777773333333355555555-|
B |77777777777777773333333355555555-|

C#|---------------------------------|
G#|---------------------------------|
E |---------------------------------|
B |77777777777777773333333333333335-|
F#|77777777777777773333333333333335-|
B |77777777777777773333333333333335-|

C#|---------------------------------|
G#|---------------------------------|
E |---------------------------------|
B |77777777777777775555555533333333-|
F#|77777777777777775555555533333333-|
B |77777777777777775555555533333333-|

BRIDGE: (Listen for timing)
C#|---------------------------------|
G#|---------------------------------|
E |---------------------------------|
B |---------------------------------|
F#|7-777-777-777--7-7-77-77---------|
B |7-777-777-777--7-7-77-77---------|
     ... ... ...      .. .. 

Hope You Enjoyed It!!! =9
Tap to rate this tab
 
# A B C D E F G H I J K L M N O P Q R S T U V W X Y Z