Song name
# A B C D E F G H I J K L M N O P Q R S T U V W X Y Z

Dead By April - Incomparable tab

SONG:   Incomparable
ARTIST: Dead By April
ALBUM:  Incomparable

TAB BY: Sheppy96
EMAIL:  msheppard96googlemail
TUNING: Drop B (c#-G#-E-B-F#-B)

----------------------------------------------
----------------------------------------------

INTRO/VERSE RIFF:

C#|--------------------------------------|------------------------19------------|
G#|--20--20-20-20--19--19--19-19--19-19--|--20--20-20-20--19--19-----20--20-19--|
E |--------------------------------------|--------------------------------------|
B |--------------------------------------|--------------------------------------|
F#|--------------------------------------|--------------------------------------|
B |--------------------------------------|--------------------------------------|

C#|--------------------------------------|--------------------------------------|
G#|--------------------------------------|--------------------------------------|
E |--------------------------------------|--------------------------------------|
B |--2-----------------------------------|--2-----------------------------------|
F#|--2-(cant work out strumming rhythm)--|--2-----------------------------------|
B |--2-----------------------------------|--2-----------------------------------|

CHORUS CHORDS:

C#|-----------------|
G#|-----------------|
E |----------5---7--|
B |--5---2---5---7--|
F#|--5---2---3---5--|
B |--5---2----------|

BRIDGE:

C#|--------------------|--------------------|
G#|--------------------|--------------------|
E |--5--------------7--|--5--------------5--|
B |--5---5---4--2---7--|--5---5---4--0---5--|
F#|--3---5---4--2---5--|--3---5---4--0---3--|
B |------5---4--2------|------5---4--0------|
Tap to rate this tab
 
# A B C D E F G H I J K L M N O P Q R S T U V W X Y Z