Song name
# A B C D E F G H I J K L M N O P Q R S T U V W X Y Z

Dead By Sunrise - Crawl Back In tab

Intro
--------------------------------------------|
--------------------------------------------|
--------------------------------------------|
--5-5-5-5-----------------------------------|
--3-3-3-3-2-2-2-2-7-7-6-5-5-5-5-5-----------|
----------0-0-0-0-5-5-4-3-3-3-3-3-----------|

Chorus
---------------------------------------------------------|
---------------------------------------------------------|
---------------------------------------------------------|
---------------------------------------------------------|
--77777777777777777710101010101010101010101010101010-----|
--77777777777777777710101010101010101010101010101010-----|
--5555555555555555558-8-8-8-8-8-8-8-8-8-8-8-8-8-8-8------|

Post-Chorus 1 Lead
---------------------------------------------------------------------------|
---------------------------------------------------------------------------|
--7-7-7/9-9-9-9-9-9-7-7-7/9-9-9-9-9-9-7-7-7/9-9-9-9-9-9-7-7-7/9-9-9-9-9-9--|
---------------------------------------------------------------------------|
---------------------------------------------------------------------------|
---------------------------------------------------------------------------|

Post Chorus 1 Rhythm
--------------------------------------------|
--------------------------------------------|
--------------------------------------------|
--5-5-5-5-----------------------------------|
--3-3-3-3-2-2-2-2-7-7-6-5-5-5-5-5-----------|
----------0-0-0-0-5-5-4-3-3-3-3-3-----------|

Verse 2 Lead
-------------------|
-------------------|
--4b5-r------------|
-------------------| x3
-------------------|
-------------------|

Verse 2 Rhythm
--------------------------------------------|
--------------------------------------------|
--------------------------------------------|
--5-5-5-5-----------------------------------|
--3-3-3-3-2-2-2-2-7-7-6-5-5-5-5-5-----------|
----------0-0-0-0-5-5-4-3-3-3-3-3-----------|

Chorus 2
---------------------------------------------------------|
---------------------------------------------------------|
---------------------------------------------------------|
---------------------------------------------------------|
--77777777777777777710101010101010101010101010101010-----| x2
--77777777777777777710101010101010101010101010101010-----|
--5555555555555555558-8-8-8-8-8-8-8-8-8-8-8-8-8-8-8------|

---------------------------------------------------------|
---------------------------------------------------------|
---------------------------------------------------------|
--12121212121212121212121212121212-----------------------|
--12121212121212121212121212121212-----------------------|
--10101010101010101010101010101010-----------------------|

---------------------------------------------------------|
---------------------------------------------------------|
---------------------------------------------------------|
---------------------------------------------------------|
--77777777777777777710101010101010101010101010101010-----|
--77777777777777777710101010101010101010101010101010-----|
--5555555555555555558-8-8-8-8-8-8-8-8-8-8-8-8-8-8-8------|

---------------------------------------------------------|
---------------------------------------------------------|
---------------------------------------------------------|
--12121212121212121212121212121212-----------------------|
--12121212121212121212121212121212-----------------------|
--10101010101010101010101010101010-----------------------|

Solo
--------------------------10---12---14b15r14---11b12---11b12---11*----|
-------------10-----12------------------------------------------------|
--10b11---9----9-0----9-0---9-0--9-0----------------------------------|
----------------------------------------------------------------------|
----------------------------------------------------------------------|
----------------------------------------------------------------------|

--12-14-12-17-12-12---12------------------------------|
--------------------12--12--12p11p10-11b12r11---------|
------------------------------------------------------|
------------------------------------------------------|
------------------------------------------------------|
------------------------------------------------------|

----------------------12/-10-------------|
--8-5--------10--10-12------8-10-8-11b---|
------7h9p7----12------------------------|
-----------------------------------------|
-----------------------------------------|
-----------------------------------------|

-----------------------------------------------------------------------------|
--11b--11b--11b--15b--15b--15b--15b--17b17b17b17b17b17b17b17b17b17b1717b17b--|
-----------------------------------------------------------------------------|
-----------------------------------------------------------------------------|
-----------------------------------------------------------------------------|
-----------------------------------------------------------------------------|

Chorus 3

---------------------------------------------------------|
---------------------------------------------------------|
---------------------------------------------------------|
---------------------------------------------------------|
--77777777777777777710101010101010101010101010101010-----| x2
--77777777777777777710101010101010101010101010101010-----|
--5555555555555555558-8-8-8-8-8-8-8-8-8-8-8-8-8-8-8------|

---------------------------------------------------------|
---------------------------------------------------------|
---------------------------------------------------------|
--12121212121212121212121212121212-----------------------|
--12121212121212121212121212121212-----------------------|
--10101010101010101010101010101010-----------------------|

---------------------------------------------------------|
---------------------------------------------------------|
---------------------------------------------------------|
---------------------------------------------------------|
--77777777777777777710101010101010101010101010101010-----|
--77777777777777777710101010101010101010101010101010-----|
--5555555555555555558-8-8-8-8-8-8-8-8-8-8-8-8-8-8-8------|

---------------------------------------------------------|
---------------------------------------------------------|
---------------------------------------------------------|
--12121212121212121212121212121212-----------------------|
--12121212121212121212121212121212-----------------------|
--10101010101010101010101010101010-----------------------|

---------------------------------------------------------|
---------------------------------------------------------|
---------------------------------------------------------|
---------------------------------------------------------|
--77777777777777777710101010101010101010101010101010-----|
--77777777777777777710101010101010101010101010101010-----|
--5555555555555555558-8-8-8-8-8-8-8-8-8-8-8-8-8-8-8------|

---------------------------------------------------------|
---------------------------------------------------------|
---------------------------------------------------------|
--12121212121212121212121212121212-----------------------|
--12121212121212121212121212121212-----------------------|
--10101010101010101010101010101010-----------------------|

Outro

--------------------------------------------|
--------------------------------------------|
--------------------------------------------| x4
--5-5-5-5-----------------------------------|
--3-3-3-3-2-2-2-2-7-7-6-5-5-5-5-5-----------|
----------0-0-0-0-5-5-4-3-3-3-3-3-----------|
Tap to rate this tab
 
# A B C D E F G H I J K L M N O P Q R S T U V W X Y Z