Song name
# A B C D E F G H I J K L M N O P Q R S T U V W X Y Z

Dead By Sunrise - Fire tab

NAME:  Fire *INTRO*
BAND:  Dead By Sunrise
ALBUM: Out Of Ashes

BY: AudioDemon

This is an Intro to the new song, Fire. 

Intro 
e|-------------------| 4x
B|-------------------|
G|-3-3-3-3---3-3-3---|
D|-5-5-5-5---3-3-5---|
A|-5-5-5-5---5-5-5---|
E|-------------------|

e|-------------------| 
B|-------------------|
G|-------------------| 
D|--3-3-3-3---3-3-3--|
A|--3-3-3-3---3-3-3--|
E|--1-1-1-1---1-1-1--|

e|-------------------| 2x
B|-------------------|
G|-3-3-3-3---3-3-3---|
D|-5-5-5-5---3-3-5---|
A|-5-5-5-5---5-5-5---|
E|-------------------|

e|-------------------| 2x
B|-------------------|
G|-------------------| 
D|--3-3-3-3---3-3-3--|
A|--3-3-3-3---3-3-3--|
E|--1-1-1-1---1-1-1--|
Tap to rate this tab
# A B C D E F G H I J K L M N O P Q R S T U V W X Y Z