Song name
# A B C D E F G H I J K L M N O P Q R S T U V W X Y Z

Dead By Sunrise - My Suffering tab

-------------------------------------------------------------------------------
			     My Suffering - Dead By Sunrise
-------------------------------------------------------------------------------
Tabbed by: Steve Kobylanski
Email: skobyla1@genesee.edu


My first tab, email me with corrections, im pretty sure its mostly right.
Listen to the song for the proper timing.
Im missing the bridge so anyone can add it or email it to me and ill add it in.
Enjoy!

Tuning: Drop D

e|---------------------------------------------------------------------------|
B|---------------------------------------------------------------------------| Intro and Verses
G|---------------------------------------------------------------------------|
D|---12--------7--------15----------10---------------------------------------|
A|---12--------7--------15----------10---------------------------------------|
D|---12--------7--------15----------10---------------------------------------|

e|---------------------------------------------------------------------------|
B|---------------------------------------------------------------------------|
G|---------------------------------------------------------------------------|
D|---3---------7--------5-----------0----------------------------------------|   Chorus
A|---3---------7--------5-----------0----------------------------------------|
D|---3---------7--------5-----------0----------------------------------------|




| /  slide up
| \  slide down
| h  hammer-on
| p  pull-off
| ~  vibrato
| +  harmonic
| x  Mute note
===============================================================================
Tap to rate this tab
 
# A B C D E F G H I J K L M N O P Q R S T U V W X Y Z