Song name
# A B C D E F G H I J K L M N O P Q R S T U V W X Y Z

Dead By Sunrise - Condemned tab

-------------------------------------------------------------------------------
			     Condemned - Dead by Sunrise
-------------------------------------------------------------------------------
Tabbed by:Entru
Email:yarde@mail.ru or yardeisme@gmail.com

I haven't tabbed solo yet,cuz i listened to the song like 3 times,so if you got a 
me or post your comment-correction.

Album is already officially released in Japan,that's where i got this song from.

Tuning:Dropped D

 Intro:
e|---------------------------------------------------------------------------|
B|---------------------------------------------------------------------------|
G|---------------------------------------------------------------------------|
D|-9-9-9-9--8-8--3-3-3-3--7-7--9-9-9-9--8-8--3-3-3-3--7-7--------------------|
A|-9-9-9-9--8-8--3-3-3-3--7-7--9-9-9-9--8-8--3-3-3-3--7-7--------------------|
D|-9-9-9-9--8-8--3-3-3-3--7-7--9-9-9-9--8-8--3-3-3-3--7-7--------------------|

 Verse(whole verse palm-muted):
e|---------------------------------------------------------------------------|
B|---------------------------------------------------------------------------|
G|---------------------------------------------------------------------------|
D|-9-9-9-9-9-8-8-5-3-3-3-3-3-3-3-3-------------------------------------------|
A|-9-9-9-9-9-8-8-5-3-3-3-3-3-3-3-3-------------------------------------------|
D|-9-9-9-9-9-8-8-5-3-3-3-3-3-3-3-3-------------------------------------------|

 Chorus:
e|---------------------------------------------------------------------------|
B|---------------------------------------------------------------------------|
G|---------------------------------------------------------------------------|
D|-2-9-5-10--2-9-5-3--2-9-5-10--2-9-5-3--------------------------------------|
A|-2-9-5-10--2-9-5-3--2-9-5-10--2-9-5-3--------------------------------------|
D|-2-9-5-10--2-9-5-3--2-9-5-10--2-9-5-3--------------------------------------|

 After chorus play verse again,then before second chorus there is

 Pre-chorus(same as verse,but not palm-muted):
e|---------------------------------------------------------------------------|
B|---------------------------------------------------------------------------|
G|---------------------------------------------------------------------------|
D|-9-9-9-9-9-8-8-5-3-3-3-3-3-3-3-3-------------------------------------------|
A|-9-9-9-9-9-8-8-5-3-3-3-3-3-3-3-3-------------------------------------------|
E|-9-9-9-9-9-8-8-5-3-3-3-3-3-3-3-3-------------------------------------------|

 Then play chorus,and after it there is

 Pre-solo:
e|---------------------------------------------------------------------------|
B|---------------------------------------------------------------------------|
G|---------------------------------------------------------------------------|
D|-3-3-3-3-3-3-3-3-----------------------------------------------------------|
A|-3-3-3-3-3-3-3-3-----------------------------------------------------------|
E|-3-3-3-3-3-3-3-3-----------------------------------------------------------|
 Solo(rhythm):
e|---------------------------------------------------------------------------|
B|---------------------------------------------------------------------------|
G|---------------------------------------------------------------------------|
D|-9-9-9-9--8-8--3-3-3-3--7-7------------------------------------------------|
A|-9-9-9-9--8-8--3-3-3-3--7-7------------------------------------------------|
D|-9-9-9-9--8-8--3-3-3-3--7-7------------------------------------------------|

 After-solo bridge:
e|---------------------------------------------------------------------------|
B|---------------------------------------------------------------------------|
G|---------------------------------------------------------------------------|
D|-8-8-8-8-9-9-9-9-12-12-12-12-13--13-13-------------------------------------|
A|-8-8-8-8-9-9-9-9-12-12-12-12-13--13-13-------------------------------------|
D|-8-8-8-8-9-9-9-9-12-12-12-12-13--13-13-------------------------------------|

 After bridge play last verse and chorus with intro(solo rhythm) riff as outro.Listen to 
to get rhythm.

| .  palm mute
| /  slide up
| \  slide down
| h  hammer-on
| p  pull-off
| ~  vibrato
| +  harmonic
| x  Mute note
===============================================================================
Tap to rate this tab
# A B C D E F G H I J K L M N O P Q R S T U V W X Y Z