Song name
# A B C D E F G H I J K L M N O P Q R S T U V W X Y Z

Dead By Sunrise - Inside Of Me tab

-------------------------------------------------------------------------------
			     Inside of Me - Dead by Sunrise
-------------------------------------------------------------------------------
Tabbed by:Entru
Email:yarde@mail.ru or yardeisme@gmail.com

Not sure about lead guitar over 2nd verse,and i haven't tabbed solo yet,so feel free to 
me.

Tuning:Dropped D
 Verse riff:
e|----------------------------------------------------------------------------|
B|----------------------------------------------------------------------------|
G|----------------------------------------------------------------------------|
D|-2-2-5/7------------2-2-5/7------------2-2-5/7------------2-2-5-0-0-0-0-0-0-|
A|-2-2-5/7------------2-2-5/7------------2-2-5/7------------2-2-5-0-0-0-0-0-0-|
D|-2-2-5/7-7-7-7-7-7--2-2-5/7-7-7-7-7-7--2-2-5/7-7-7-7-7-7--2-2-5-0-0-0-0-0-0-|
  (Palm mute single 7s while slightly keeping your finger on 7th fret,like when you're 
harmonic)

 Pre-chorus:
e|-----------------------------------------------------------------------------------|
B|-----------------------------------------------------------------------------------|
G|-----------------------------------------------------------------------------------|
D|-5-5-5-3-3-3-3-3-3--5-5-5-3-3-3-3-3-3--5-5-5-3-3-3-3-3-3--5-5-5-3-3-3-3-3-3--5-5-5-|
A|-5-5-5-3-3-3-3-3-3--5-5-5-3-3-3-3-3-3--5-5-5-3-3-3-3-3-3--5-5-5-3-3-3-3-3-3--5-5-5-|
D|-5-5-5-3-3-3-3-3-3--5-5-5-3-3-3-3-3-3--5-5-5-3-3-3-3-3-3--5-5-5-3-3-3-3-3-3--5-5-5-|

 Chorus:
e|----------------------------------------------------------------------------------|
B|----------------------------------------------------------------------------------|
G|----------------------------------------------------------------------------------|
D|-0-0-0-0-0-7-7-7-7-7-3-3-3-3-3-5-5-5-5-5--0-0-0-0-0-7-7-7-7-7-3-3-3-3-3-3-3-3-3-3-|
A|-0-0-0-0-0-7-7-7-7-7-3-3-3-3-3-5-5-5-5-5--0-0-0-0-0-7-7-7-7-7-3-3-3-3-3-3-3-3-3-3-|
D|-0-0-0-0-0-7-7-7-7-7-3-3-3-3-3-5-5-5-5-5--0-0-0-0-0-7-7-7-7-7-3-3-3-3-3-3-3-3-3-3-|

 Lead guitar over 2nd verse(not sure):
e|---------------------------------------------------------------------------|
B|------0--0------0--0-----------0--0------0--0-------0--0--0--0--0----------|
G|-9-9-10-10-9-9-10-10-9-9--9-9-10-10-9-9-10-10-9-9--12-12-12-12-12----------|
D|---------------------------------------------------------------------------|
A|---------------------------------------------------------------------------|
D|---------------------------------------------------------------------------|

 Then play chorus again,solo,and last chorus.I think i will update tab when i'll find 
solo and rhythm guitar during solo.
 Enjoy,rate and comment.


| /  slide up
| \  slide down
| h  hammer-on
| p  pull-off
| ~  vibrato
| +  harmonic
| x  Mute note
===============================================================================
Tap to rate this tab
# A B C D E F G H I J K L M N O P Q R S T U V W X Y Z