Song name
# A B C D E F G H I J K L M N O P Q R S T U V W X Y Z

Dead By Sunrise - Inside Of Me tab

Intro
-----------------------|-----------------------|-----------------------|
-----------------------|-----------------------|-----------------------|
-----2--2--2--2--2--2--|-----2--2--2--2--2--2--|-----2--2--2--2--2--2--|
-333-2--2--2--2--2--2--|-333-2--2--2--2--2--2--|-333-2--2--2--2--2--2--|
-333-0-----------------|-333-0-----------------|-333-0-----------------|
-111-------------------|-111-------------------|-111-------------------|
        .  .  .  .  .           .  .  .  .  .           .  .  .  .  .

-----------------------|
-----------------------|
-----2--2--2--2--2--2--|
-333-2--2--2--2--2--2--|
-333-0--0--0--0--0--0--|
-111-------------------|


Verse
-----------------------|-----------------------|-----------------------|
-----------------------|-----------------------|-----------------------|
-----2--2--2--2--2--2--|-----2--2--2--2--2--2--|-----2--2--2--2--2--2--|
-333-2--2--2--2--2--2--|-333-2--2--2--2--2--2--|-333-2--2--2--2--2--2--|
-333-0-----------------|-333-0-----------------|-333-0-----------------|
-111-------------------|-111-------------------|-111-------------------|
        .  .  .  .  .           .  .  .  .  .           .  .  .  .  .

-----------------------|
-----------------------|
-----2--2--2--2--2--2--|
-333-2--2--2--2--2--2--|
-333-0--0--0--0--0--0--|
-111-------------------|

-----------------------|
-----------------------|
-22--------------------|
-222-3--3--3--3--3--3--|x4
-002-3--3--3--3--3--3--|
---0-1--1--1--1--1--1--|

Chorus

-----------------------------|
-----------------------------|
-222222--------555555--------|
-222222-333333-555555-555555-|
-000000-333333-333333-555555-|x4
--------111111--------333333-|
	
Tap to rate this tab
# A B C D E F G H I J K L M N O P Q R S T U V W X Y Z