Song name
# A B C D E F G H I J K L M N O P Q R S T U V W X Y Z

Dead By Sunrise - Into You tab

e|---------------------------------------------------------------|
B|---------------------------------------------------------------|
G|------4-----------7-------7--------9---------7-----------------|
D|-----4--4-------7---7---7--7----9----9-----7----7------7----7--|
A|----2-----2-s--5--------------7---------5----------------------|   x3
D|-----------------------5-----------------------------5----7----|


Vers Same Is The Intro

chorus:
e|-------2------5-----2----3-|
B|-------3------7-----2----3-|
G|-------4------7-----3----4-|
D|-----4---------------------|
A|----2----------------------|
D|---------------------------|

or You Can Just Strum slightly This:

Part 1

e|----------------------------|
B|----------------------------|
G|----4------7-----6-----7----|
D|----4--x8--7-X7--4-x7--5----|x7
A|----2------5-----4-----5----|
D|-----------------4-----5----|

Part 2

e|--------------------------------------|
B|--------------------------------------|
G|----4------7-----6-----7--------------|
D|----4--x8--7-X7--4-x7--5--------------|
A|----2------5-----4-----5--------------|let it ring
D|-----------------4-----5--------------|

vers Again :

e|---------------------------------------------------------------|
B|---------------------------------------------------------------|
G|------4-----------7-------7--------9---------7-----------------|
D|-----4--4-------7---7---7--7----9----9-----7----7------7----7--|
A|----2-----2-s--5--------------7---------5----------------------|
D|-----------------------5-----------------------------5----7----|

chorus Again


Bridge:

e|----------x-x--------x-x-x-x-----|
B|----------x-x--------x-x-x-x-----|
G|----------x-x--------x-x-x-x-----|
D|----4-----x-x--4-----x-x-x-x-----|    x2
A|----4-x4--x-x--4-x4--x-x-x-x-----|
D|----4-----x-x--4-----x-x-x-x-----|

e|---------x-x-------x-x-x-x--|
B|---------x-x-------x-x-x-x--|
G|---------x-x-------x-x-x-x--|
D|----5----x-x--5----x-x-x-x--|x2
A|----5-x4-x-x--5-x4-x-x-x-x--|
D|----5----x-x--5----x-x-x-x--|


Do the bridge 2 times

end with
e|-------|
B|-------|
G|-------|
D|----7--|
A|----7--|
D|----7--|

then move To this chorus:

e|-------------------------------|
B|-------------------------------|
G|-------------------------------|
D|----9-----0------4------5------|
A|----9-x8--0--x8--4-x8---5-x8---|
D|----9-----0------4------5------|

End with

e|---------------------------------------|
B|---------------------------------------|
G|---------------------------------------|
D|----9-----0------4------5--------------|
A|----9-x8--0--x8--4-x8---5--------------|let it ring
D|----9-----0------4------5--------------|


then vers end with

e|-------|
B|-------|
G|----4--|
D|----4--|
A|----2--|
D|-------|

the the chorus:

e|-------2------5-----2----3-|
B|-------3------7-----2----3-|
G|-------4------7-----3----4-|
D|-----4---------------------|
A|----2----------------------|
D|---------------------------|

or You Can Just Strum slightly This:

Part 1

e|----------------------------|
B|----------------------------|
G|----4------7-----6-----7----|
D|----4--x8--7-X7--4-x7--5----|x7
A|----2------5-----4-----5----|
D|-----------------4-----5----|

And Ending chorus:

e|-------------------------------|
B|-------------------------------|
G|-------------------------------|
D|----9-----0------4------5------|
A|----9-x8--0--x8--4-x8---5-x8---|
D|----9-----0------4------5------|

End with

e|---------------------------------------|
B|---------------------------------------|
G|---------------------------------------|
D|----9-----0------4------5--------------|
A|----9-x8--0--x8--4-x8---5--------------|let it ring
D|----9-----0------4------5--------------|


hmm That's it =]
hope you enjoy
it's a great song from chester solo project Dead by Sunrise
please comment! =]
Tap to rate this tab
 
# A B C D E F G H I J K L M N O P Q R S T U V W X Y Z