Song name
# A B C D E F G H I J K L M N O P Q R S T U V W X Y Z

Dead By Sunrise - Walking In Circles tab

-------------------------------------------------------------------------------
			     Walking in Circles - Dead by Sunrise
-------------------------------------------------------------------------------
Tabbed by:Entru
Email:yarde@mail.ru or yardeisme@gmail.com

Notice:chorus is tabbed not exactly like the studio version,its tabbed the way i like to 
it.
But if you dont like it,you can easily transform it to studio version,just cut it in 
parts.

I'll update tab with solo as soon as i'll figure it out.If you already got a solo - 
me.

Tuning:Standard

 Intro(lead):
e|-------------------------------------------------------------------------------|
B|-/15~--15-14-12-12~--12-14-15-15~--15-17-15-14~--15-12~------------------------|
G|-------------------------------------------------------------------------------|
D|-------------------------------------------------------------------------------|
A|-------------------------------------------------------------------------------|
E|-------------------------------------------------------------------------------|

e|-------------------------------------------------------------------------------|
B|-/15~--15-14-12-12~--12-14-15-15~--15-17-15-14~--15-12~--14-11~---12~----------|
G|-------------------------------------------------------------------------------|
D|-------------------------------------------------------------------------------|
A|-------------------------------------------------------------------------------|
E|-------------------------------------------------------------------------------|

 Intro(rhythm):
e|-------------------------------------------------------------------------------|
B|-------------------------------------------------------------------------------|
G|-------------------------------------------------------------------------------|
D|-------------------------------------------------------------------------------|
A|-9-9-9-9-x-4-4-4-4-x-5-5-5-5-x-2-2-2-2-x-9-9-9-9-x-4-4-4-4-x-5-5-5-5-x-2-2-2-2-|
E|-7-7-7-7-x-2-2-2-2-x-3-3-3-3-x-0-0-0-0-x-7-7-7-7-x-2-2-2-2-x-3-3-3-3-x-0-0-0-0-|

e|-------------------------------------------------------------------------------|
B|-------------------------------------------------------------------------------|
G|-------------------------------------------------------------------------------|
D|-------------------------------------------------------------------------------|
A|-4----5------------------------------------------------------------------------|
E|-2----3------------------------------------------------------------------------|

Verse:same as intro rhythm.

 Chorus(1st part)(skips made for better understanding):
e|---------------------------------------------------------------------------|
B|---------------------------------------------------------------------------|
G|---------------------------------------------------------------------------| x2
D|---------------------------------------------------------------------------|
A|-9-9-9-9-9-9--5-5-5--5-7-5-2-2-2-2-2-2--4-4-4-4-4-4--2-4-7-----------------|
E|-7-7-7-7-7-7--3-3-3--3-5-3-0-0-0-0-0-0--2-2-2-2-2-2--0-2-5-----------------|

 Chorus(2nd part):
e|---------------------------------------------------------------------------|
B|---------------------------------------------------------------------------|
G|---------------------------------------------------------------------------|
D|---------------------------------------------------------------------------|
A|-4-2-4--5--5-4--4--2-2-2-2-2-2-4-4-4-4-4-4-5-5-5--2-4-7--------------------|
E|-2-0-2--3--3-2--2--0-0-0-0-0-0-2-2-2-2-2-2-3-3-3--0-2-5--------------------|


 2nd verse:same as first.

| /  slide up
| \  slide down
| h  hammer-on
| p  pull-off
| ~  vibrato
| +  harmonic
| x  Mute note
===============================================================================
Tap to rate this tab
# A B C D E F G H I J K L M N O P Q R S T U V W X Y Z