Song name
# A B C D E F G H I J K L M N O P Q R S T U V W X Y Z

Dead By Sunrise - Into You tab

Tabbed by LucaSanta

Dead By Sunrise - Out Of Ashes - Into You
Guitar 1 D A D G B E : Clean
Guitar 2 D A D G B E : Clean with reverb
Guitar 3 D A D G B E : Distorted

Intro & verse [Guitar 1]
e|---------------------------------------------------------------|
B|---------------------------------------------------------------|
G|------4-----------7-------7--------9---------7-----------------|
D|-----4--4-------7---7---7--7----9----9-----7----7------7----7--|
A|----2-----2-s--5--------------7---------5----------------------|   
D|-----------------------5-----------------------------5----7----| x5

Chorus [Guitar 2]
e|----------5------------5------------5-----------5--------------|
B|----------3------------3------------3-----------3--------------|
G|---------------------------------------------------------------|
D|---------------------------------------------------------------|
A|---------------------------------------------------------------|
D|---------------------------------------------------------------| x2

Verse [Guitar 1]
e|---------------------------------------------------------------|
B|---------------------------------------------------------------|
G|------4-----------7-------7--------9---------7-----------------|
D|-----4--4-------7---7---7--7----9----9-----7----7------7----7--|
A|----2-----2-s--5--------------7---------5----------------------|
D|-----------------------5-----------------------------5----7----|x2

Chorus [Guitar 2]
e|----------5------------5------------5-----------5--------------|
B|----------3------------3------------3-----------3--------------|
G|---------------------------------------------------------------|
D|---------------------------------------------------------------|
A|---------------------------------------------------------------|
D|---------------------------------------------------------------| x2

Bridge [Guitar 3]
Do it 2 times

e|----------x-x--------x-x-x-x---------x-x--------x-x-x-x---|
B|----------x-x--------x-x-x-x---------x-x--------x-x-x-x---|
G|----------x-x--------x-x-x-x---------x-x--4-----x-x-x-x---|
D|----4-----x-x--4-----x-x-x-x---4-----x-x--4-----x-x-x-x---| 
A|----4-x4--x-x--4-x4--x-x-x-x---4-x4--x-x--4-x4--x-x-x-x---|
D|----4-----x-x--4-----x-x-x-x---4-----x-x--4-----x-x-x-x---|

e|----------x-x--------x-x-x-x---------x-x--------x-x-x-x---|
B|----------x-x--------x-x-x-x---------x-x--------x-x-x-x---|
G|----------x-x--------x-x-x-x---------x-x--------x-x-x-x---|
D|----5-----x-x--5-----x-x-x-x---5-----x-x--5-----x-x-x-x---|
A|----5-x4--x-x--5-x4--x-x-x-x---5-x4--x-x--5-x4--x-x-x-x---|
D|----5-----x-x--5-----x-x-x-x---5-----x-x--5-----x-x-x-x---|

End the bridge with
e|-------|
B|-------|
G|-------|
D|----7--|
A|----7--|
D|----7--|

Chorus  [Guitar 3]
e|-------------------------------|
B|-------------------------------|
G|-------------------------------|
D|----9-----0------4------5------|
A|----9-x8--0--x8--4-x8---5-x8---|
D|----9-----0------4------5------|

End the chorus with
e|---------------------------------------|
B|---------------------------------------|
G|---------------------------------------|
D|----9-----0------4------5--------------|
A|----9-x8--0--x8--4-x8---5--------------|
D|----9-----0------4------5--------------|


Verse [Guitar 1]
e|---------------------------------------------------------------|
B|---------------------------------------------------------------|
G|------4-----------7-------7--------9---------7-----------------|
D|-----4--4-------7---7---7--7----9----9-----7----7------7----7--|
A|----2-----2-s--5--------------7---------5----------------------|
D|-----------------------5-----------------------------5----7----|x2

End the verse with [Guitar 3]
e|-------|
B|-------|
G|----4--|
D|----4--|
A|----2--|
D|-------|

Chorus [Guitar 2]
e|----------5------------5------------5-----------5--------------|
B|----------3------------3------------3-----------3--------------|
G|---------------------------------------------------------------|
D|---------------------------------------------------------------|
A|---------------------------------------------------------------|
D|---------------------------------------------------------------| x2

Ending chorus: [Guitar 3]
e|-------------------------------|
B|-------------------------------|
G|-------------------------------|
D|----9-----0------4------5------|
A|----9-x8--0--x8--4-x8---5-x8---|
D|----9-----0------4------5------|

End the chorus with
e|---------------------------------------|
B|---------------------------------------|
G|---------------------------------------|
D|----9-----0------4------5--------------|
A|----9-x8--0--x8--4-x8---5--------------|
D|----9-----0------4------5--------------|

Having fun!!
Tap to rate this tab
 
# A B C D E F G H I J K L M N O P Q R S T U V W X Y Z