Guitaretab - guitar tabs
Song name
# A B C D E F G H I J K L M N O P Q R S T U V W X Y Z

Dead Can Dance - American Dreaming tab

-------------------------------------------------------------------------------
                             American Dreaming  Dead can Dance
-------------------------------------------------------------------------------
Tabbed by: deadcandancefan
Email: civilwolf1@yahoo.com


Hopefully this works for everyone.


Tuning: Standard

Chords
e|---0----|   e|---0---|   e|---0---|   e|---0---|   e|---3---|   e|---2---|
B|---1----|   B|---0---|   B|---3---|   B|---3---|   B|---3---|   B|---3---|
G|---0----|   G|---0---|   G|---0---|   G|---2---|   G|---2---|   G|---2---|
D|---2----|   D|---0---|   D|---4---|   D|---0---|   D|---0---|   D|---0---|
A|---3----|   A|---3---|   A|---5---|   A|---0---|   A|---0---|   A|---0---|
E|---3----|   E|---3---|   E|---5---|   E|---x---|   E|---x---|   E|---x---|


Verses   (It's basically these 3 chords until the chorus. Listen to the song for the 
pattern)
e|-0---------0------------------0--------------------------------------------|
B|-1---------0------------------3--------------------------------------------|
G|-0---------0------------------0--------------------------------------------|
D|-2---------0------------------4--------------------------------------------|
A|-3---------3------------------5--------------------------------------------|
E|-3---------3------------------5--------------------------------------------|
[ Tab from: http://www.guitaretab.com/d/dead-can-dance/60400.html ]
   I Need my conscience to keep watch over me


e|-0-------------0--------------0--------------------------------------------|
B|-1-------------0--------------3--------------------------------------------|
G|-0-------------0--------------0--------------------------------------------|
D|-2-------------0--------------4--------------------------------------------|
A|-3-------------3--------------5--------------------------------------------|
E|-3-------------3--------------5--------------------------------------------|

   To protect me from my    -   self...


Chorus
e|-0------------------3----------2-------0--------0-------0-------0----------|
B|-3------------------3----------3-------1--------0-------1-------0----------|
G|-2------------------2----------2-------0--------0-------0-------0----------|
D|-0------------------0----------0-------2--------0-------2-------0----------|
A|-0------------------0----------0-------3--------3-------3-------3----------|
E|-x------------------x----------x-------3--------3-------3-------3----------|
   Yea  ee  On  the  lea  the   rising  wind     blows


 Note: If you watch Toward the Within, Brendon is playing about 4 other chords right 
the chorus. I'm not sure what these are so i didn't tab them. But i watched the video and 
is essentially what he plays.
===============================================================================
Related for American Dreaming tab