Guitaretab - guitar tabs
Song name
# A B C D E F G H I J K L M N O P Q R S T U V W X Y Z

Dead Can Dance - Enigma Of The Absolute tab

Enigma of the Absolute - Dead Can Dance

Intro
-----

e)-------2-----3---------0-----1-------|
b)-----3---3-----3-----1---1-----1-----|
g)---0-------0-----0---------------0---|
d)-------------------3-------3---------|
a)-------------------------------------|
e)-------------------------------------|

Cello part
----------
[ Tab from: http://www.guitaretab.com/d/dead-can-dance/83666.html ]
e)----------------------------------------------------------------|
b)----------------------------------------------------------------|
g)----------------------------------------------------------------|
d)--5-5-5-0-0-0-------------------3-3-3---------------------------|
a)------------------------3-3-2-2-------3-3-3-----------1-1-0-0---|
e)--------------2-3-3-3-3---------------------0-1-1-1-1-----------|
Related for Enigma Of The Absolute tab
×
Enigma Of The Absolute