Song name
# A B C D E F G H I J K L M N O P Q R S T U V W X Y Z

Dead Celebrity Status - While I Was Asleep tab

Ok, the first guitar part goes like this.
e|----------------------------------|
B|----------------------------------|
G|----------------------------------| X2
D|-0-3-2---3-2---3-2---3-5-3-2-0----|
A|-------0-----1-----3--------------|
E|----------------------------------|

e|----------------------------------------------------------|
B|----------------------------------------------------------|
G|----------------------------------------------------------|
D|-000-333-222-------333-222-------333-222-------333-5-3-2--|
A|--------------000----------111------------333-------------|
E|----------------------------------------------------------|

e|----------------------------------------------------------|
B|----------------------------------------------------------|
G|----------------------------------------------------------|
D|-000-333-222-------333-222-------333-222-------3~~--------|
A|--------------000----------111------------333-------------|
E|----------------------------------------------------------|

e|-------|
B|-------|
G|-------| Repeated
D|-0-3-2-|
A|-------|
E|-------|
Tap to rate this tab
 
# A B C D E F G H I J K L M N O P Q R S T U V W X Y Z