Song name
# A B C D E F G H I J K L M N O P Q R S T U V W X Y Z

Dead Combo - Electrica Cadente tab

Intro/Verse
e --6B------------------------------------|
B -----8------8-8-7-8-10-8-7--------------|
G 7------7---------------------7--7--5----|
D ----------------------------------------|
A ----------------------------------------|
E-----------------------------------------|

Verse/ Chorus

e ------------------------------------------|
B ------------------------------------------|
G ----5--7--8--------5----------------------|
D --------------7--8-----4--5--7------------|
A ---------------------------------PT5-5PT--|
E ------------------------------------------|

Interlude

e -----------------------------------------------|
B -----------------------------------------------|
G -----------7-6------5--------------------------|
D ---7-5---------7--7------8S5------5S8----7S4---|
A -------5---------------------------------------|
E -----------------------------------------------|


I don't own it - taken from the remedy Alan Wake forum
Tap to rate this tab
# A B C D E F G H I J K L M N O P Q R S T U V W X Y Z