Song name
# A B C D E F G H I J K L M N O P Q R S T U V W X Y Z

Dead Combo - Miudas E Motas tab

-------------------------------------------------------------------------------
	     DEAD COMBO - MIUDAS E MOTAS (A BUNCH OF MENINOS - 2014):
-------------------------------------------------------------------------------
Tabbed by: Phrase MARK
Web-Site: http://mark.pt.la

Tuning: EADGBe

Intro:
e|--------------------------------------------------------|
B|--------------------------------------------------------|
G|----------------2-~-------------------------------------|
D|----------------2-~-------------------------------------|
A|----------------0-~-------------------------------------|
E|-0--0-2-0-4-0-5-----0--0-4-0-5-0-7--8-7-5-4--4-5-7--(7)-|
 2x

Versos:
e|--------------|
B|--------------|
G|--------------|
D|--------------|
A|--------------|
E|-0--0-2-0-4-0-|

e|-----------------------------------------------------------------|
B|-----------------------------------------------------------------|
G|-----------------------------------7-~---------------------------|
D|-----------------------------------7-~--7/9-9-9/10\9-7-6---------|
A|------------7-------------7--8-7-5-5-~-------------------7-5-----|
E|-5--7-8-7-5----5--7-8-7-5------------------------------------8-7-|
 2x

Refrão:
e|---------------------------------------|
B|---------------------------------------|
G|-7-7--7-7--7-7--7-7---2-2--2-2--2-2--2-|
D|-7-7--7-7--7-7--7-7---2-2--2-2--2-2--2-|
A|-5-5--5-5--5-5--5-5---0-0--0-0--0-0--0-|
E|---------------------------------------|

-Versos-

-Refrão-

Refrão Final:
e|---------------------------------------------------------|
B|---------------------------------------------------------|
G|-7-7-7--7-7-7--7-7-7--7-7-7---2-2-2--2-2-2--2-2-2--2-2-2-|
D|-7-7-7--7-7-7--7-7-7--7-7-7---2-2-2--2-2-2--2-2-2--2-2-2-|
A|-5-5-5--5-5-5--5-5-5--5-5-5---0-0-0--0-0-0--0-0-0--0-0-0-|
E|---------------------------------------------------------|
2x

e|-------|
B|-------|
G|-9-9-9-|
D|-9-9-9-|
A|-7-7-7-|
E|-------|
7x

e|-----|
B|-----|
G|-2-~-|
D|-2-~-|
A|-0-~-|
E|-----|


************************************

| /   slide up
| \   slide down
| ~   vibrato

************************************

Tabbed by: Phrase MARK
Web-Site: http://mark.pt.la
Tap to rate this tab
 
# A B C D E F G H I J K L M N O P Q R S T U V W X Y Z