Song name
# A B C D E F G H I J K L M N O P Q R S T U V W X Y Z

Dead Elizabeth - Beauty In Deails tab

                           ******************
                           **Dead Elizabeth**
                           ******************
                           (FRESNO LOCAL BAND)

Ok.i have been looking everywhere for tabs from Dead Elizabeth and could not find it so
me and my friend spent day learning the song as perect as we can. hope you like it. if
you have any comments, questions , or corrections please email me at
OnlyOneL0ve@aol.com


Tuning: dadgbE (DROP D)


e----------------------------------------------|
b----------------------------------------------|
g----------------------------------------------|
d----------------------------------------------|
a----7-8------7-8/10-7-----7-8-----12\10\8\7---|
d-0-------0-------------0-------0--------------|


e----------------------------------------------|
b----------------------------------------------|
g----------------------------------------------|
d----------------------------------------------|
a----7-8----7-8/10-7-----7-8-----8-7\5\4-------|
d--8------8-----------0-------0----------------|

e----------------------------------------------|
b----------------------------------------------|
g----------------------------------------------|
d----7-8------7-8/10-7-----7-8-----12\10\8\7---|
a----------------------------------------------|
d-0-------0-------------0-------0--------------|

e----------------------------------------------|
b----------------------------------------------|
g----------------------------------------------|
d----7-8----7-8/10-7-----7-8-----8-7\5\4-------|
a--8------8------------------------------------|
d---------------------0-------0----------------|
Tap to rate this tab
# A B C D E F G H I J K L M N O P Q R S T U V W X Y Z