Song name
# A B C D E F G H I J K L M N O P Q R S T U V W X Y Z

Dead Identities - One Hell Of A Shock tab

-------------------------------------------------------------------------------
			     One hell of a shock - dead identities
-------------------------------------------------------------------------------
Tabbed by:TheTroy
Tuning: Half step down

INTRO:

clean x2
e|-----7-------7-------7-------7-------7-------7-------7-------7-------7---5-|
B|---------------------------------------------------------------------------|
G|-9-------9-------8-------8-------7-------7-------6-------6-------5---------|
D|---9---9---9---9---9---9---9---9---9---9---9---9---9---9---9---9---7---7---|
A|---------------------------------------------------------------------------|
E|---------------------------------------------------------------------------|

e|---------------------------------------------------------------------------|
B|---8---7~-4~-5~------------------------------------------------------------|
G|---------------------------------------------------------------------------|
D|-7---7---------------------------------------------------------------------|
A|---------------------------------------------------------------------------|
E|---------------------------------------------------------------------------|

distortion
E|---------------------------------------------------------------------------|
B|---------------------------------------------------------------------------|
G|----------------------0~-2-4-2~----0~--------------------------------------|
D|-2~-4-5-1~--2~-4-5--------------4~-----------------------------------------|
A|-------------------4~------------------------------------------------------|
E|---------------------------------------------------------------------------|


PRE-VERSE:

Guitar 1 x12
e|---------------------------------------------------------------------------|
B|---------------------------------------------------------------------------|
G|---------------------------------------------------------------------------|
D|-2-2-----------------------------------------------------------------------|
A|-2-2---------------------8p7-----------------------------------------------|
E|-0-0-3h4-0-0-5h6-0-0-7h8-----0-0-------------------------------------------|

Guitar 2 - enters on 9th time
e|---------------------------------------------------------------------------|
B|---------------------------------------------------------------------------|
G|-12-9-99-12-9-99-12-9-12/14-12---------------------------------------------|
D|-12-9-99-12-9-99-12-9-12/14-12---------------------------------------------|
A|---------------------------------------------------------------------------|
E|---------------------------------------------------------------------------|


VERSE:

e|-------------------------|--|----------------------------------------------|
B|-------------------------|--|----------------------------------------------|
G|----------------------7--|--|---------------7-7-7-77-777-------------------|
D|-2-x-x-22-2-x-22-2-xx-7-7|X2|-9-9-9-99-99-9-7-7-7-77-777-7-7-7-77-777------|
A|-2-x-x-22-2-x-22-2-xx-5-7|--|-9-9-9-99-99-9-5-5-5-55-555-7-7-7-77-777------|
E|-0-x-x-00-0-x-00-0-xx---5|--|-7-7-7-77-77-7--------------5-5-5-55-555------|

e|---------------------------------------------------------------------------|
B|---------------------------------------------------------------------------|
G|-99999999-1111111111111111-1313131313131313-1616161616161616---------------|
D|-xxxxxxxx-x-x-x-x-x-x-x-x--x-x-x-x-x-x-x-x--x-x-x-x-x-x-x-x----------------|
A|-77777777-9-9-9-9-9-9-9-9--1111111111111111-1414141414141414---------------|
E|---------------------------------------------------------------------------|

CHORUS:

e|---------------------------------------------------------------------------|
B|---------------------------------------------------------------------------|
G|---------------------------------7-7-7-7---------7-7-7-7-9-9-9-9-----------|
D|-7-7-7-7-7-7-7-7-4-4-4-4-2-2-2-2-7-7-7-7-7-7-7-7-7-7-7-7-9-9-9-9-----------|
A|-7-7-7-7-7-7-7-7-4-4-4-4-2-2-2-2-5-5-5-5-7-7-7-7-5-5-5-5-7-7-7-7-----------|
E|-5-5-5-5-4-4-4-4-2-2-2-2-0-0-0-0---------5-5-5-5---------------------------|

Repeat pre-verse

reapeat verse

chorus

Bridge
e|------------------|--|----------|------------------------------------------|
B|-------------5/6-5|--|----------|------------------------------------------|
G|-------------x/x-x|--|----------|------------------------------------------|
D|-2-----------2/3-2|X3|-----0-1-2|-2-4-5-4-2-4-5-7-9-7-5-4-2-0-----0-1-2----|
A|-2----------------|--|-2-3------|-----------------------------2-3----------|
E|-0-0-0-0-0-0------|--|----------|------------------------------------------|

Then...
e|---------------------------------------------------------------------------|
B|---9-12---7-10-------------------------------------------------------------|
G|-9------7------6~-----------8-8-8-8---------8-8-8-8---------8-8-8-8--------|
D|------------------9-9-9-9-9-8-8-8-8-9-9-9-9-8-8-8-8-9-9-9-9-8-8-8-8-6-6-7-8|
A|------------------9-9-9-9-9-6-6-6-6-9-9-9-9-6-6-6-6-9-9-9-9-6-6-6-6-6-6-7-8|
E|------------------7-7-7-7-7---------7-7-7-7---------7-7-7-7---------4-4-5-6|

e|---------------------------------------------------------------------------|
B|---------------------------------------------------------------------------|
G|---------------------------------------------------------------------------|
D|-9-------------------------------------------------------------------------|
A|-9-------------------------------------------------------------------------|
E|-7-------------------------------------------------------------------------|

And...
e|----------------------------------------------------------|--|-------------|
B|----------------------------------------------------------|--|-------------|
G|---------4-4-----------6-6--------------------------------|--|---------4-4-|
D|-----6-6-----6-----8-8-----8---------4-4------------------|X2|-----6-6-----|
A|-7-7-----------9-9---------------6-6-----6-----4-4-5-5-6-6|--|-7-7---------|
E|-----------------------------7-7-----------7-7------------|--|-------------|

e|--------------------------------------------|------------------------------|
B|--------------------------------------------|------------------------------|
G|---------6-6--------------------------------|-------9~---------------------|
D|-----8-8-----8---------2-2-----------4-4----|-7~----9~---------------------|
A|-9-9---------------4-4-----4-----6-6-----6-7|-7~----7~---------------------|
E|---------------5-5-----------7-7------------|-5~---------------------------|

Play bridge part 1

then pre verse

Solo (too complicated for me at the moment)

End with a chorus

This was a pain to figure out and to tab. Wish i could've made it simpiler but i just 
get this in. Thanks!
************************************

| /   slide up
| \   slide down
| h   hammer-on
| p   pull-off
| ~   vibrato
| +   harmonic
| x   Mute note
| b   Bend
| pb  Pre-bend
| br  Bend release
| pbr Pre-bend release
| brb Bend release bend

************************************
Tap to rate this tab
 
# A B C D E F G H I J K L M N O P Q R S T U V W X Y Z