Song name
# A B C D E F G H I J K L M N O P Q R S T U V W X Y Z

Dead Identities - Whats Your Point Of View tab

-------------------------------------------------------------------------------
			                         What's Your Point Of View?
-------------------------------------------------------------------------------
Tabbed by:TheTroy

Tuning:Half Step Down

Intro (00:00 - 00:20)
e|---------------------------------------------------------------------------|
B|---------------------------------------------------------------------------|
G|---------------------------------------------------------------------------|
D|-2-xxx2-xxx5-4-7-8-2-xxx2-xxx5-4-7-8-------------------------8-7-----------|
A|-2-xxx2-xxx3-2-5-6-2-xxx2-xxx3-2-5-6---5-7-8---5-7-8---5-7-8-6-5-7-8---5-7-|
E|-0-xxx0-xxx--------0-xxx0-xxx--------0-3-5-6-0-3-5-6-0-3-5-6-----5-6-0-3-5-|

e|---------------------------------------------------------------------------|
B|---------------------------------------------------------------------------|
G|---------------------------------------------------------------------------|
D|------------------5-4-7-8--------------------------------------------------|
A|8---5-7-8---5-7-8-3-2-5-6--------------------------------------------------|
E|6-0-3-5-6-0-3-5-6----------------------------------------------------------|

Verse (00:20 - 00:36)
e|---------------------------------------------------------------------------|
B|---------------------------------------------------------------------------|
G|---------------------------------------------------------------------------|
D|------------------22222222222222222------------------44444444--------------|
A|-2222222222222222-00000000000000000-2222222222222222-22222222-3-2-0-2-22222|
E|-0000000000000000-------------------0000000000000000------------------00000|

e|---------------------------------------------------------------------------|
B|---------------------------------------------------------------------------|
G|---------------------------------------------------------------------------|
D|------------2222222222222222-5-555555-4-444444-----------------------------|
A|22222222222-0000000000000000-3-333333-2-222222---5-7-8---5-7-8-------------|
E|00000000000------------------------------------0-3-5-6-0-3-5-6-------------|

Pre-Chorus (00:36 - 00:52)
e|---------------------------------------------------------------------------|
B|---------------------------------------------------------------------------|
G|---------------------------------------------------------------------------|
D|-5-55-555-4-44-444-9-99-999-2-22-222-2-22-222-4-44-444-----------------5-55|
A|-3-33-333-2-22-222-7-77-777-0-00-000-0-00-000-2-22-222---5-7-8---5-7-8-3-33|
E|-------------------------------------------------------0-3-5-6-0-3-5-6-----|

e|---------------------------------------------------------------------------|
B|---------------------------------------------------------------------------|
G|---------------------------------------------------------------------------|
D|555-4-44-444-9-99-999-2-22-222-5-55-555-4-44-444--5-55-555-4-44-444--------|
A|333-2-22-222-7-77-777-0-00-000-3-33-333-2-22-222--3-33-333-2-22-222--------|
E|---------------------------------------------------------------------------|

Chorus (00:52 - 1:06)
e|---------------------------------------------------------------------------|
B|---------------------------------------------------------------------------|
G|-----------------2-2-2-2-2-2-2-2-----------------4-4-4-4-------------------|
D|-2-2-2-2-2-2-2-2-2-2-2-2-2-2-2-2-2-2-2-2-2-2-2-2-4-4-4-4-5-4-7-8-2-2-2-2-2-|
A|-2-2-2-2-2-2-2-2-0-0-0-0-0-0-0-0-2-2-2-2-2-2-2-2-2-2-2-2-3-2-5-6-2-2-2-2-2-|
E|-0-0-0-0-0-0-0-0-----------------0-0-0-0-0-0-0-0-----------------0-0-0-0-0-|

e|---------------------------------------------------------------------------|
B|---------------------------------------------------------------------------|
G|------2-2-2-2-2-2-2-2---------4-4-4-4--------------------------------------|
D|2-2-2-2-2-2-2-2-2-2-2-2-2-2-2-4-4-4-4--------------------------------------|
A|2-2-2-0-0-0-0-0-0-0-0-2-2-2-2-2-2-2-2--------------------------------------|
E|0-0-0-----------------0-0-0-0----------------------------------------------|

Varied intro (1:06 - 1:16)
e|---------------------------------------------------------------------------|
B|---------------------------------------------------------------------------|
G|---------------------------------------------------------------------------|
D|-2-xxx2-xxx-5-4-7-8-------------------------8-7----------------------------|
A|-2-xxx2-xxx-3-2-5-6---5-7-8---5-7-8---5-7-8-6-5-7-8---5-7-8---5-7-8---5-7-8|
E|-0-xxx0-xxx---------0-3-5-6-0-3-5-6-0-3-5-6-----5-6-0-3-5-6-0-3-5-6-0-3-5-6|

e|---------------------------------------------------------------------------|
B|---------------------------------------------------------------------------|
G|---------------------------------------------------------------------------|
D|-5-4-7-8-------------------------------------------------------------------|
A|-3-2-5-6-------------------------------------------------------------------|
E|---------------------------------------------------------------------------|

Verse 2 (1:16 - 1:32)
e|---------------------------------------------------------------------------|
B|---------------------------------------------------------------------------|
G|---------------------------------------------------------------------------|
D|------------------22222222222222222------------------44444444--------------|
A|-2222222222222222-00000000000000000-2222222222222222-22222222-3-2-0-2-22222|
E|-0000000000000000-------------------0000000000000000------------------00000|

e|---------------------------------------------------------------------------|
B|---------------------------------------------------------------------------|
G|---------------------------------------------------------------------------|
D|------------2222222222222222-5-555555-4-444444-----------------------------|
A|22222222222-0000000000000000-3-333333-2-222222---5-7-8---5-7-8-------------|
E|00000000000------------------------------------0-3-5-6-0-3-5-6-------------|

Verse 2 - Guitar 2 (using pinch harmonix maybe?)
e|---------------------------------------------------------------------------|
B|-5-4-5-4-3-4-5-4-5-7~------------------------------------------------------|
G|---------------------------------------------------------------------------|
D|---------------------------------------------------------------------------|
A|---------------------------------------------------------------------------|
E|---------------------------------------------------------------------------|

Pre-Chorus (1:32 - 1:48)
e|---------------------------------------------------------------------------|
B|---------------------------------------------------------------------------|
G|---------------------------------------------------------------------------|
D|-5-55-555-4-44-444-9-99-999-2-22-222-2-22-222-4-44-444-----------------5-55|
A|-3-33-333-2-22-222-7-77-777-0-00-000-0-00-000-2-22-222---5-7-8---5-7-8-3-33|
E|-------------------------------------------------------0-3-5-6-0-3-5-6-----|

e|---------------------------------------------------------------------------|
B|---------------------------------------------------------------------------|
G|---------------------------------------------------------------------------|
D|555-4-44-444-9-99-999-2-22-222-5-55-555-4-44-444--5-55-555-4-44-444--------|
A|333-2-22-222-7-77-777-0-00-000-3-33-333-2-22-222--3-33-333-2-22-222--------|
E|---------------------------------------------------------------------------|

Chorus (1:48 - 2:01)
e|---------------------------------------------------------------------------|
B|---------------------------------------------------------------------------|
G|-----------------2-2-2-2-2-2-2-2-----------------4-4-4-4-------------------|
D|-2-2-2-2-2-2-2-2-2-2-2-2-2-2-2-2-2-2-2-2-2-2-2-2-4-4-4-4-5-4-7-8-2-2-2-2-2-|
A|-2-2-2-2-2-2-2-2-0-0-0-0-0-0-0-0-2-2-2-2-2-2-2-2-2-2-2-2-3-2-5-6-2-2-2-2-2-|
E|-0-0-0-0-0-0-0-0-----------------0-0-0-0-0-0-0-0-----------------0-0-0-0-0-|

e|---------------------------------------------------------------------------|
B|---------------------------------------------------------------------------|
G|------2-2-2-2-2-2-2-2---------4-4-4-4--------------------------------------|
D|2-2-2-2-2-2-2-2-2-2-2-2-2-2-2-4-4-4-4--------------------------------------|
A|2-2-2-0-0-0-0-0-0-0-0-2-2-2-2-2-2-2-2--------------------------------------|
E|0-0-0-----------------0-0-0-0----------------------------------------------|

Bridge (2:01 - 2:07)
e|---------------------------------------------------------------------------|
B|---------------------------------------------------------------------------|
G|---------------------------------------------------------------------------|
D|-2-xxx2-xxx-5-4-7-8-5\4-7-8-5\4-7-8-2-xxx2-xxx2----------------------------|
A|-2-xxx2-xxx-3-2-5-6-3\2-5-6-3\2-5-6-2-xxx2-xxx2----------------------------|
E|-0-xxx0-xxx-------------------------0-xxx0-xxx0----------------------------|

Solo (2:07 - 2:47)
e|---------------------------------------------------------------------------|
B|-10~-10h12h13-12-10--------------------------------------------------------|
G|--------------------12-12--11-9~--11h12p11-9-8--9/11-----------------------|
D|-----------------------------------------------------10-10h12p10p9~---7~-7h|
A|---------------------------------------------------------------------------|
E|---------------------------------------------------------------------------|

e|---------------------------------------------------------------------------|
B|--------------------------------------------------10--10--10~-10h11-10h11--|
G|--------------------------------------------------12b-12b-12~--------------|
D|9h10-9-7-------------------10-9-13-14~-pickslide---------------------------|
A|---------10-10--9-7~/10-9--------------\\\\\\\\\---------------------------|
E|---------------------------------------\\\\\\\\\---------------------------|

e|---------------------------------------------------------------------------|
B|-10h11-10h11--------------------------12h13h15p13p12----13p12--------------|
G|-------------12p11--------------12-14----------------14-------14p12--------|
D|-------------------12/14--12-14-------------------------------------14p12--|
A|---------------------------------------------------------------------------|
E|---------------------------------------------------------------------------|

e|---------------------------------------------------------------------------|
B|--------------------------------------------------------8------------------|
G|----11-12-14-12-11------5-4h5-5/7-5p4-44-------------77---9~---------------|
D|-14----------------14\-------------------5p4-5p4-5/7-----------------------|
A|------------------------------------------------------------------3-2~/10-9|
E|-------------------------------------------------------------/3-2----------|

e|-------------------------------------------14----14-14---------------------|
B|-------11-11-12-12-11-11-12-12-11-12-11-12-17b19-19-19---------------------|
G|-------11-11-12-12-11-11-12-12-11-12-11-12---------------------------------|
D|-10-9~---------------------------------------------------------------------|
A|---------------------------------------------------------------------------|
E|---------------------------------------------------------------------------|

Chorus (2:47 - 3:21)
e|---------------------------------------------------------------------------|
B|---------------------------------------------------------------------------|
G|-----------------2-2-2-2-2-2-2-2-----------------4-4-4-4-------------------|
D|-2-2-2-2-2-2-2-2-2-2-2-2-2-2-2-2-2-2-2-2-2-2-2-2-4-4-4-4-5-4-7-8-2-2-2-2-2-|
A|-2-2-2-2-2-2-2-2-0-0-0-0-0-0-0-0-2-2-2-2-2-2-2-2-2-2-2-2-3-2-5-6-2-2-2-2-2-|
E|-0-0-0-0-0-0-0-0-----------------0-0-0-0-0-0-0-0-----------------0-0-0-0-0-|

e|---------------------------------------------------------------------------|
B|---------------------------------------------------------------------------|
G|------2-2-2-2-2-2-2-2---------4-4-4-4-----------------2-2-2-2-2-2-2-2------|
D|2-2-2-2-2-2-2-2-2-2-2-2-2-2-2-4-4-4-4-----------------2-2-2-2-2-2-2-2-2-2-2|
A|2-2-2-0-0-0-0-0-0-0-0-2-2-2-2-2-2-2-2---5-7-8---5-7-8-0-0-0-0-0-0-0-0-2-2-2|
E|0-0-0-----------------0-0-0-0---------0-3-5-6-0-3-5-6-----------------0-0-0|

e|---------------------------------------------------------------------------|
B|---------------------------------------------------------------------------|
G|-----------4-4-4-4-4-4-4-4-4-4-4-4---------2-2-2-2-2-2-2-2-----------------|
D|-2-2-2-2-2-4-4-4-4-4-4-4-4-2-2-2-2-5-4-7-8-2-2-2-2-2-2-2-2-2-2-2-2-2-2-2-2-|
A|-2-2-2-2-2-2-2-2-2-2-2-2-2---------3-2-5-6-0-0-0-0-0-0-0-0-2-2-2-2-2-2-2-2-|
E|-0-0-0-0-0-------------------------------------------------0-0-0-0-0-0-0-0-|

e|---------------------------------------------------------------------------|
B|---------------------------------------------------------------------------|
G|---------4-4-4-4-2-2-2-2-4-4-4-4-5-5-5-5-4-4-4-4---------------------------|
D|-4-4-4-4-4-4-4-4-2-2-2-2-4-4-4-4-5-5-5-5-4-4-4-4---------------------------|
A|-4-4-4-4-2-2-2-2-0-0-0-0-2-2-2-2-3-3-3-3-2-2-2-2---------------------------|
E|-2-2-2-2-------------------------------------------------------------------|

Outro (3:21 - END)
e|---------------------------------------------------------------------------|
B|---------------------------------------------------------------------------|
G|---------------------------------------------------------------------------|
D|-----------------5-4-7-8-5-4-7-8-5-4-7-8-2-xxx2-xxx2~----------------------|
A|---5-7-8---5-7-8-3-2-5-6-3-2-5-6-3-2-5-6-2-xxx2-xxx2~----------------------|
E|-0-3-5-6-0-3-5-6-------------------------0-xxx0-xxx0~----------------------|


P34C3.0U7.D4WG.
Tap to rate this tab
 
# A B C D E F G H I J K L M N O P Q R S T U V W X Y Z