Song name
# A B C D E F G H I J K L M N O P Q R S T U V W X Y Z

Dead In Existence - The Face Of Unity tab

-------------------------------------------------------------------------------
			     The Face of Unity- Dead In Existence
-------------------------------------------------------------------------------
Tabbed by: 
Email:

Tuning:drop C


  Intro
D|-------------------------------------------------13p17-13------------------|
A|----------------15h18-------------------17h20--------------15--------------|
F|------------14----------------------16------------------------14-----------|
C|--------15---------------------17--------------------------------15--------|
G|-13h17------------------15h19----------------------------------------17----| 
C|---------------------------------------------------------------------------|




  Play 4xs
D|------------------------------------------------------------------------------|
A|------------------------------------------------------------------------------|
F|------------------------------------------------------------------------------|
C|------------------------------------------------------------------------------|
G|---13---13---13---12---12---12---10---10---10---12---10---8---13---12---10----|
C|-00----00---00-------00----00--------00---00-------00--00------00---00--------|

D|----------------------------------------13h17-13----------------------------------|
A|------------------------------------15-----------15-------------------------------|
F|--------------------------------14-------------------14---------------------------|
C|----------------------------15---------------------------15-----------------------|
G|-12----10----8-------13h17-----------------------------------17-----------0~------|
C|----00----00--------------------------------------------------------------0~------|



   

  Breakdown 
D|---------------------------------------------------------------------------------------------| 
A|---------------------------------------------------------------------------------------------|
F|---------------------------------------------------------------------------------------------|
C|---------------------------------------------------------------------------------------------|
G|-000000-000000-00-00-000000-----000000-000000-00-00-000000-----000000-000000-00-00-000000----|
C|-000000-000000-00-00-000000-----000000-000000-00-00-000000-----000000-000000-00-00-000000----|
   
D|---------------------------------------------------------------------------|
A|---------------------------------------------------------------------------|
F|---------------------------------------------------------------------------|
C|---------------------------------------------------------------------------|
G|-000000-000000-00-00-000000--------000-000--00--000-----000-000--00--000---|
C|-000000-000000-00-00-000000--------000-000--00--000-----000-000--00--000---|

D|---------------------------------------------------------------------------|
A|---------------------------------------------------------------------------|
F|---------------------------------------------------------------------------|
C|---------------------------------------------------------------------------|
G|-00000-00000-00-00-00000-----00000-00000-00-00-00000-------0---------------|
C|-00000-00000-00-00-00000-----00000-00000-00-00-00000-------0---------------|





    play once
D|--------------------------------|
A|--------------------------------|
F|--------------------------------|
C|--------------------------------|
G|----5---5-----8---7---3----3h5--|
C|-00---0----00---0---0---00------|



   play 9xs
D|------------------------------------|
A|------------------------------------|
F|------------------------------------|
C|------------------------------------|
G|----8---8------12---10---7----7h8---|
C|-00---0----00-----0----0---00-------|



   play 4xs
D|--------------------------------------|
A|--------------------------------------|
F|--------------------------------------|
C|--------------------------------------|
G|-----8p0-7p0------12---10---7----7h8--|
C|-00-----------00-----0----0---00------|



   play 2xs
D|--------------------------------------------------------------------------|
A|--------------------------------------------------------------------------|
F|------------7s-9--9s-10-----------------------9s-10--10s-12---------------|
C|------------x--x--x--x-----8-7----------------x--x---x---x------10-8------|
G|-0~--00-----5s-7--7s-8-----8-7-----0~--00-----7s-8---8s--10-----10-8------|
C|-0~--00--------------------8-7-----0~--00-----------------------10-8------|




   play 2xs
D|--------------------------------------------------------------------------|
A|--------------------------------------------------------------------------|
F|----------7s-9--9s-10------------10s-9--9s-7--------------10s-10--12s-14--|
C|----------x--x--x--x-------------x---x--x--x-------8-8----x---x---x---x---|
G|-0-1-0----5s-7--7s-8-----0-00----8s--7--7s-5-----0-8-8----8s--12--10s-12--|
C|-0-1-0-------------------0-00--------------------0-8-8--------------------|

D|-------------------------------|
A|-------------------------------|
F|------------12s-10--10s-9--9---|
C|---10-10----x---x---x---x--x---|
G|-0-10-10----10s-8---8s--7--7---|
C|-0-10-10-----------------------|



    play once 
D|--------------------------------------------------------------------------|
A|--------------------------------------------------------------------------|
F|-----------9s-10-10s-12--------------------------10s-12--12s-14-----------|
C|-----------x--x--x---x-----8-7-------------------x---x---x---x-----10-8---|
G|-0~--00----7s-8--8s--10----8-7---------0~--00----8s--10--10s-12----10-8---|
C|-0~--00--------------------8-7---------0~--00----------------------10-8---|




   Breakdown
    play  9xs
D|-----------------------------------|
A|-----------------------------------|
F|-----------------------------------|
C|-4-3-4---------4-3-1--4-3-1--------|
G|-4-3-4---------4-3-1--4-3-1--------|
C|-4-3-4---------4-3-1--4-3-1--------|






| /  slide up
| \  slide down
| h  hammer-on
| p  pull-off
| ~  vibrato
| +  harmonic
| x  Mute note
Tap to rate this tab
# A B C D E F G H I J K L M N O P Q R S T U V W X Y Z