Song name
# A B C D E F G H I J K L M N O P Q R S T U V W X Y Z

Dead Infection - After Accident tab

-------------------------------------------------------------------------------
                             AFTER ACCIDENT -  Dead Infection
-------------------------------------------------------------------------------
Tabbed by: monarch-ofdeath
Email: monarchdeath@gmail.com



e|----------------------------|
B|----------------------------|
G|----------------------------|
D|----------------------------| RIFF A  
A|-2-22--6-5-4----------------|
E|-0-00--4-3-2----------------|

e|----------------------------|
B|----------------------------|
G|----------------------------|
D|----------------------------| RIFF B 
A|-2~--7~--6~--2-5-4----------|
E|-0~--5~--4~--0-3-2----------|

e|----------------------------|
B|----------------------------|
G|----------------------------|
D|----------------------------| RIFF C
A|-22-277-766-62-5-4----------|
E|-00-055-544-40-3-2----------|

e|----------------------------|
B|----------------------------|
G|----------------------------|
D|----------------------------| RIFF Ca
A|-22-277-766-62-5-4-2~-------|
E|-00-055-544-40-3-2-0~-------|




RIFF A X8

RIFF B X2

RIFF C X4

RIFF B X1

RIFF C X2

RIFF Ca X1
Tap to rate this tab
# A B C D E F G H I J K L M N O P Q R S T U V W X Y Z