Song name
# A B C D E F G H I J K L M N O P Q R S T U V W X Y Z

Dead Kennedys - I Fought The Law tab

Dead Kennedys -  I Fought the Law, Off The Album Give Me Convenience or Give Me Death In 1987




Intro
G|----------------------------------|
D|----------------------------------|
A|----------------------------------|
E|--3-3-3-3-3-3-3-3-3-3-3-3-3-3-3-3-|


Fill
G|-------------------------------------------|
D|-------------------------------------------|
A|-------------------------------------------|
E|-3-3-3-3-8-8-10-10-10-8-8-3-3-3-3-10-8-5-3-|


Riff 1 ("Drinkin' beer...")
G|----------------------|
D|----------------------|
A|----------------------|
E|-3-3-3-3-8-8-10-10-10-|


Riff 2 
G|--------------------------------------|
D|--------------------------------------|
A|--------------------------------------|
E|-3-3-3-3-8-8-10-10--3-3-3-3-10-10-8-8-|


Riff 3 
G|-------------------------------------------------|
D|-------------------------------------------------|
A|-------------------------------------------------|
E|-8-8-8-8-8-8-8-8-3-3-3-3-3-3-3-3-8-8-8-8-8-8-8-8-|


Playing Order

Intro
Fill x2
Riff 1
Riff 2
Fill
Riff 1
Riff 2
Fill
Riff 3
Riff 2
Fill
Riff 3
Fill
(Jello sings w/ no  music)
Riff 2
Fill
Riff 1
Riff 2
Fill
Riff 3
Riff 2 x2
Fill
Tap to rate this tab
# A B C D E F G H I J K L M N O P Q R S T U V W X Y Z