Song name
# A B C D E F G H I J K L M N O P Q R S T U V W X Y Z

Dead Kennedys - Dead End tab

                               DEAD END
                          BY THE DEAD KENNEDYS
                         TAB SUBMITTED BY HYATT

e:--0------0-0--0--------------------------------|
B:--0------3-3--0--------------------------------|
G:--0------0-0--0--------------------------------|
D:--2------2-2--2--------------------------------|  INTRO
A:--2------2-2--2--------------------------------|
E:--0------0-0--0--------------------------------|  do this a few times

e:--0--0-0-0-0---0-0-0-0-0-----------------------------|
B:--0--3-2-1-0---0-3-2-1-0-----------------------------|
G:--0--0-0-0-0---0-0-0-0-0-----------------------------|
D:--2--2-2-2-2---2-2-2-2-2-----------------------------|
A:--2--2-2-2-2---2-2-2-2-2-----------------------------|
E:--0--0-0-0-0---0-0-0-0-0-----------------------------| this is pretty much the whole 
except for the chorus but that is eay to figure out
Tap to rate this tab
# A B C D E F G H I J K L M N O P Q R S T U V W X Y Z