Song name
# A B C D E F G H I J K L M N O P Q R S T U V W X Y Z

Dead Kennedys - Riot tab

Dead Kennedys - Riot, Off The Album Plastic Surgery Disasters In 1982

PART 1 OF INTRO PLAY 2X'S
e|--------------------------------------------------------------------|
B|----------6-5-5-6-5-4-6-5---------6-5-5-6-5-4-6-4-------------------|
G|----2-4-5-------------------2-4-5-----------------------------------|
D|--------------------------------------------------------------------|
A|--------------------------------------------------------------------|
E|--------------------------------------------------------------------|

PART 2 OF INTRO PLAY 6X'S
e|-------------------------|
B|-------------------------|
G|-----8----------------1--|
D|-------------------------|
A|-------------------------|
E|-------------------------|

VERSE PART-1__P-VERSE
e|-----6--------------11-11-11-11-13-13-13-13-------------------------|
B|-----8--------------------------------------12-12-12-12-11-11-11-11-|
G|-----8--------------------------------------------------------------|
D|-----8--------------------------------------------------------------|
A|-----6--------------------------------------------------------------|
E|-----6--------------------------------------------------------------|

e|--------------------------------------------------------------------|
B|-12-12-12-12-13-13-13-13-14-14-14-14-15-15-15-15-16-16-16-16-17-17--|
G|--------------------------------------------------------------------|
D|--------------------------------------------------------------------|
A|--------------------------------------------------------------------|
E|--------------------------------------------------------------------|

e|--------------------------------------------------------------------|
B|-17-17-18-18-18-18-19-19-19-19-20-20-20-20-21-21-21-21-22-22-22-22--|
G|--------------------------------------------------------------------|
D|--------------------------------------------------------------------|
A|--------------------------------------------------------------------|
E|--------------------------------------------------------------------|

VERSE PART-2__P-VERSE
e|---------------11-13-13-12------------------11-10--------------13-12-|
B|---10-10-12-12---------------12~~~~~-----12-------11-10-----12-------|
G|--------------------------------------12-----------------12----------|
D|---------------------------------------------------------------------|
A|---------------------------------------------------------------------|
E|---------------------------------------------------------------------|

e|-------------15-14-------------17-16--------------19-18-------------|
B|12-11-----14-------14-13----16-------16-15-----18-------18-17-------|
G|-------14----------------16-----------------18----------------------|
D|--------------------------------------------------------------------|
A|--------------------------------------------------------------------|
E|--------------------------------------------------------------------|

VERSE
e|---6--------------------5---------------6---------------12----------|
B|---8--------------------5---------------8---------------14----------|
G|---8--------------------6---------------8---------------14----------|
D|---8--------------------7---------------8---------------14----------|
A|---6--------------------7---------------6---------------12----------|
E|---6--------------------5---------------6---------------12----------|


CHORUS
e|-----7-7-8--8--5-5-5-9---7-7-8--8--5-5-5-9---7-7-8--8--5-5-5-9------|
B|-----9-9-10-10-7-7-7-7---9-9-10-10-7-7-7-7---9-9-10-10-7-7-7-7------|
G|-----9-9-10-10-7-7-7-7---9-9-10-10-7-7-7-7---9-9-10-10-7-7-7-7------|
D|-----9-9-10-10-7-7-7-7---9-9-10-10-7-7-7-7---9-9-10-10-7-7-7-7------|
A|-----7-7-8--8--5-5-5-9---7-7-8--8--5-5-5-9---7-7-8--8--5-5-5-9------|
E|-----7-7-8--8--5-5-5-9---7-7-8--8--5-5-5-9---7-7-8--8--5-5-5-9------|

e|---1-1---2------1------|
B|---3-3---4------3------|
G|-1-3-3-1-4-1--1-3-1-1--|
D|-2-3-3-2-4-2--2-3-2-2--|
A|-2-1-1-2-2-2--2-1-2-2--|
E|---1-1---2------1------|

BRIDGE
e|------1-------1-------1------1---------------------------------------|
B|------3-------3-------3------3---------------------------------------|
G|------3-------3-------3------3--------------------9-8----------------|
D|------3-------3-------3------3--------5-7-5-7-5-7-----7-10-7-10-7-10-|
A|------1-------1-------1------1---------------------------------------|
E|------1-------1-------1------1---------------------------------------|

e|-------------1-----2-3------1-----2-3-------------------------------|
B|-------------3-----4-3------3-----4-3-------12-12-11-11-11-11-11-11-|
G|----------1--3--1--4-4---1--3--1--4-4-------------------------------|
D|-6--------2--3--2--4-5---2--3--2--4-5-------------------------------|
A|----------2--1--2--2-5---2--1--2--2-5-------------------------------|
E|-------------1-----2-3------1-----2-3-------------------------------|

e|---------------------------------------------------------------------|
B|11-11-13-13-12-12-12-12-12-12-12-12-14-14-13-13-13-13-15-15-14-14-14-|
G|---------------------------------------------------------------------|
D|---------------------------------------------------------------------|
A|---------------------------------------------------------------------|
E|---------------------------------------------------------------------|

e|--------------------------------------------------------------------|
B|-14-16-16-15-15-15-15-17-17-16-16-16-16-18-18-17-17-17-17-19-19-18--|
G|--------------------------------------------------------------------|
D|--------------------------------------------------------------------|
A|--------------------------------------------------------------------|
E|--------------------------------------------------------------------|

e|--------------------------------------------------------------------|
B|18-18-18-20-20-19-19-19-19-21-21-20-20-20-20-22-22-21-21-21-21------|
G|--------------------------------------------------------------------|
D|--------------------------------------------------------------------|
A|--------------------------------------------------------------------|
E|--------------------------------------------------------------------|

e|--------------|
B|--------------|
G|---1--------1-|
D|----0-3-2-0---|
A|--------------|
E|--------------|
Tap to rate this tab
# A B C D E F G H I J K L M N O P Q R S T U V W X Y Z