Guitaretab - guitar tabs
Song name
# A B C D E F G H I J K L M N O P Q R S T U V W X Y Z

Dead Kennedys - Drug Me tab

Dead Kennedys - Drug Me (Solo)
1979-11-19 - Earth Tavern, Portland, Oregon

I was watching a video of The Dead Kennedys playing Drug Me live 
and saw that East Bay Ray threw in a quick solo in the middle of
the song and decided to tab it out.
[ Tab from: http://www.guitaretab.com/d/dead-kennedys/182570.html ]
Standard:                     (11) = Hold Note     
e B G D A E                    /   = Slide
                                    
                             
                              "...stoned."                               
e--------------------------------------------------------------------------|
B--------------------------------------------------------------------------|
G-------------------------------Feedback-----------------------------------|
D------------------------------Delay/Echo----------------------------------|
A--------------------------------------------------------------------------|
E--------------------------------------------------------------------------|
  
e--------------------------------------------------------------------------|
B--------------------------------------------------------------------------|
G-13-13-13-13-13-13-13-13-13-13-13-13-13-13-13-13-13-13-13-13-13-13-13-13-/|
D--------------------------------------------------------------------------|
A--------------------------------------------------------------------------|
E--------------------------------------------------------------------------|
                                                         |End|
e-------------------------------------------------------------|------------|
B-------------------------------------------------------------|------------|
G-11-11-11-11-11-11-11-11-11-11-11-11-11-11-11-11--11-11-(11)-|------------|
D-------------------------------------------------------------|-10-10-10---|
A-------------------------------------------------------------|-10-10-10---|
E-------------------------------------------------------------|-8--8--8----|
                                                |------------|  "Drug me!"  
                                                 Tempo change


Just a really fast,chromatic solo, sounds pretty cool. 

Lyrics:

TV and the stereo and girls are lots of fun
I want the max
I relate better loaded
'Gotta see that movie stoned'

--------Rest---------- 
^Feedback begins here^
----------------------

----------------------
--------Solo----------
----------------------

DRUG ME DRUG ME DRUG ME DRUG ME 
Drug me with natural vitamin C
Drug me with pharmaceutical speed
Drug me with your sleeping pills
Drug me with your crossword puzzles
Drug me with your magazines
Drug me with your fuck machines
With a fountain of fads
More rock and roll ads
DRUG ME DRUG ME DRUG ME ME ME 

-----------------------------------------------------
-^Enter appropriate section when lyrics begin again^-
-----------------------------------------------------

Jeff
JAM66upyrs@msn.com
Related for Drug Me tab
Advertisement will be closed in 10 seconds