Song name
# A B C D E F G H I J K L M N O P Q R S T U V W X Y Z

Dead Kennedys - Forest Fire tab

-----------------------------------------------------------------------------
			     Forest Fire - Dead Kennedys
-----------------------------------------------------------------------------
Tabbed by:Colin Pecolatto
Email:Petey_Poundrater@hotmail.com

Tuning:Standard

INTRO
"Ahhhhhh..."
e|-----------------------------------------------------------|
B|-----------------------------------------------------------|
G|(7)----9-------9----(7)----7-------7----(9)----9-------9---|
D|(7)---9-9-----9-9---(7)---7-7-----7-7---(9)---9-9-----9-9--|
A|(7)--7---7---7---7--(5)--5---5---5---5--(7)--7---7---7---7-|
E|(0)-0-----0-0-----0-(0)-0-----0-0-----0-(0)-0-----0-0-----0|

e|-----------------------------|
B|-----------------------------|
G|(7)---7----10-10-10-9-9-9-7-7|
D|(7)--7-7---10-10-10-9-9-9-7-7|
A|(5)-5---5---8--8--8-7-7-7-5-5|
E|(0)0-----0----------0-0-0-0-0|

"No junk food just earthly goods! I ate weird berries in the woods!"
e|----------------------------------------------------------------|
B|----------------------------------------------------------------|
G|9-9-9-9-9-9-9-9-9-9-9-9----------7-7-7-7-7-7-7-7-7-7-7-7--------|
D|9-9-9-9-9-9-9-9-9-9-9-9----------7-7-7-7-7-7-7-7-7-7-7-7--------|
A|7-7-7-7-7-7-7-7-7-7-7-7----------5-5-5-5-5-5-5-5-5-5-5-5--------|
E|0-0-0-0-0-0-0-0-0-0-0-0----------0-0-0-0-0-0-0-0-0-0-0-0--------|

"Now im seeing colors, im getting higher! I think I'll start a forest fire!"
e|-----------------------------------------------------------------------|
B|-----------------------------------------------------------------------|
G|9-9-9-9-9-9-9-9-9-9-9-9-----------------7--7--7--7-7/-10-10-10-5/-(7---|
D|9-9-9-9-9-9-9-9-9-9-9-9-----------------7--7--7--7-7/-10-10-10-5/-(7---|
A|7-7-7-7-7-7-7-7-7-7-7-7-----------------5--5--5--5-5/--8--8--8-3/-(5---|
E|0-0-0-0-0-0-0-0-0-0-0-0-----------------0--0--0--0-0/-------------(0---|

VERSE
"There's a forest fire climbin' the hills, you better watch your california homes!"
e|-------------------------------------------------|
B|-------------------------------------------------|
G|7-7-7-7-7-10-10-10-10-10-7-7-7-7-7-10-10-10-10-10|
D|7-7-7-7-7-10-10-10-10-10-7-7-7-7-7-10-10-10-10-10|
A|5-5-5-5-5--8--8--8--8--8-5-5-5-5-5--8--8--8--8--8|
E|0-0-0-0-0----------------0-0-0-0-0---------------|
"Better run, run, run, run, run, run from the fire!"
e|--------------------------------|
B|--------------------------------|
G|7-7-10-10-5-5-5-5-5/-7-7-7-7-7-7|
D|7-7-10-10-5-5-5-5-5/-7-7-7-7-7-7|
A|5-5--8--8-3-3-3-3-3/-5-5-5-5-5-5|
E|0-0------------------0-0-0-0-0-0|

CHORUS
"Windows covered with bars, security guards..."
e|--------------------------------------------------------------------------|
B|--------------------------------------------------------------------------|
G|7-5-5-5-5-5-5-5-5--7-5-5-5-5-5-5-5-5--5-7-7-7-7-7-7-7-7--5-7-7-7-7-7-7-7-7|
D|7-5-5-5-5-5-5-5-5--7-5-5-5-5-5-5-5-5--5-7-7-7-7-7-7-7-7--5-7-7-7-7-7-7-7-7|
A|5-3-3-3-3-3-3-3-3--5-3-3-3-3-3-3-3-3--3-5-5-5-5-5-5-5-5--3-5-5-5-5-5-5-5-5|
E|0------------------0--------------------0-0-0-0-0-0-0-0----0-0-0-0-0-0-0-0|

e|--------------------------------------------------------------------------|
B|--------------------------------------------------------------------------|
G|7-5-5-5-5-5-5-5-5--7-5-5-5-5-5-5-5-5--5-7-7-7-7-7-7-7-7--5-7-7-7-7-7-7-7-7|
D|7-5-5-5-5-5-5-5-5--7-5-5-5-5-5-5-5-5--5-7-7-7-7-7-7-7-7--5-7-7-7-7-7-7-7-7|
A|5-3-3-3-3-3-3-3-3--5-3-3-3-3-3-3-3-3--3-5-5-5-5-5-5-5-5--3-5-5-5-5-5-5-5-5|
E|0------------------0--------------------0-0-0-0-0-0-0-0----0-0-0-0-0-0-0-0|

e|----------------------------------------------------------------------|
B|----------------------------------------------------------------------|
G|7-7-7-7-7-7--7-6-5-5-5-5-5-5--5-4-3-3-3-3-3-3--3-4-5-5-5-5-5-5-5-5-5-5|
D|7-7-7-7-7-7--7-6-5-5-5-5-5-5--5-4-3-3-3-3-3-3--3-4-5-5-5-5-5-5-5-5-5-5|
A|5-5-5-5-5-5--5-4-3-3-3-3-3-3--3-2-1-1-1-1-1-1--1-2-3-3-3-3-3-3-3-3-3-3|
E|0-0-0-0-0-0--0--------------------------------------------------------|

BRIDGE
(Return to verse and chorus then play this)
"But hey! What about the cocaine"
e|--------------------------------------------------------------------------|
B|9-8-7-9-8-7-9-8-7-9-8-7-9-8-7-9-8-7 7-6-5-7-6-5-7-6-5-7-6-5-7-6-5-7-6-5---|
G|--------------------------------------------------------------------------|
D|--------------------------------------------------------------------------|
A|--------------------------------------------------------------------------|
E|--------------------------------------------------------------------------|

"Stockpiled in the basement, be a hero and save it!"
e|-----------------------------------------------------------------------|
B|9-8-6-9-8-7-9-8-7-9-8-7-9-8-7-9-8-7 7-6-5-7-6-5-7-6-5-7-6-5-7-6-5-7-6-5|
G|-----------------------------------------------------------------------|
D|-----------------------------------------------------------------------|
A|-----------------------------------------------------------------------|
E|-----------------------------------------------------------------------|

"You know you're gonna need it..."
e|-----------------------------------------------------------------------|
B|9-8-7-9-8-7 7-6-5-7-6-5 9-8-7-9-8-7 7-6-5-7-6-5 9-8-7-9-8-7 7-6-5-7-6-5|
G|-----------------------------------------------------------------------|
D|-----------------------------------------------------------------------|
A|-----------------------------------------------------------------------|
E|-----------------------------------------------------------------------|

e|----------|
B|----------|
G|7-7-7-9-10|
D|7-7-7-9-10|
A|5-5-5-7--8|
E|0-0-0-0---|

OUTRO
(Return to verse and chorus then play this)
"See the gerbil run, run, run, run, run, run, run, run, run, run, run, run, run, run, 
run, run, run, run, run, run, run, run, run, run, run, run from the fire!"
e|----------------------------------------------------------------|
B|----------------------------------------------------------------|
G|7-7-5-5-10-10-7-7--7-7-5-5-10-10-7-7--7-7-5-5-10-10-10-10--10--7|
D|7-7-5-5-10-10-7-7--7-7-5-5-10-10-7-7--7-7-5-5-10-10-10-10--10--7|
A|5-5-3-3--8--8-5-5--5-5-3-3--8--8-5-5--5-5-3-3--8--8--8--8---8--5|
E|0-0-----------0-0--0-0-----------0-0--0-0----------------------0|


| /  slide up
| \  slide down
| h  hammer-on
| p  pull-off
| ~  vibrato
| +  harmonic
| x  Mute note
=============================================================================
Tap to rate this tab
# A B C D E F G H I J K L M N O P Q R S T U V W X Y Z