Song name
# A B C D E F G H I J K L M N O P Q R S T U V W X Y Z

Dead Kennedys - Your Emotions tab

Band - The Dead Kennedys
Song - You're Emotions
Album - Fresh Fruit For Rotting Vegtables

Tabbed By : SumFX (Tyler Freear)

Well The Other Tab Missed Out A Couple Of Things And Was A Bit Messy.
So I Decided To Make This Tab!

Note. You Could Play 5th Chords (powerchords)
      But It Sounds Better With Barre Chords.

Intro
|-3------5--|
|-3------5--|
|-4------6--|
|-5------7--|
|-5------7--|
|-3------5--|

Verse      x3                        Guitar Overdub
|--------33---55--|--------77777777--|------------|
|-9999---33---55--|-9999---77777777--|-9p7-----7--|
|-9999---44---66--|-9999---88888888--|-9p7-----7--|
|-9999---55---77--|-9999---99999999--|------9-----|
|-7777---55---77--|-7777---99999999--|------------|
|--------33---55--|--------77777777--|------------|


Chorus             Lead Line
|-----22--55--44--|----------------------|--------------------------|
|-----22--55--44--|-7------7------7------|-12------12------12-------|
|-11--33--66--55--|-9b(11)-9b(11)-9b(11)-|-14b(16)-14b(16)-14b(16)--|
|-22--44--77--66--|----------------------|--------------------------|
|-22--44--77--66--|----------------------|--------------------------|
|-00--22--55--44--|----------------------|--------------------------|

Outro
"You're Emotions, Make You A Monster!"
|-------77777777--|
|-9999--77777777--|
|-9999--88888888--|
|-9999--99999999--|
|-7777--99999999--|
|-------77777777--|

There You Go, All The Guitar Parts!!!

The Structure Is Easy To Figure Out.

Rate & Comments Please!!!!

Tap to rate this tab
# A B C D E F G H I J K L M N O P Q R S T U V W X Y Z