Song name
# A B C D E F G H I J K L M N O P Q R S T U V W X Y Z

Dead Kennedys - California Uber Alles tab

Well, I did this as a cover for my GCSE Solo piece. 
I had to write a tab to sumbit, it does include 
bits from other tabs on the site but I changed
most of it so decided to upload! ;)

Artist: Dead Kennedys
Track: California Uber Alles
Album: Fresh Fruit For Rotting Vegetables

Tablature

Standard Tuning

Key:

* = palm mute

Song Order:

Intro          x1
Intro Part 2   x3
Intro Part 3   x1
Intro Part 4   x3
Pre Chorus     x2
Chorus         x2
Pre Chorus     x2
Verse          x5
Pre Chorus     x1
Verse          x3
Pre Chorus     x2
Chorus         x2
Pre Chorus     x3
Bridge         x1
Chorus         x2
Pre Chorus     x3
Outro          x1


Intro

e|--------------------|
B|--------------------|
G|--------------------|
D|--------------------|
A|-6--7--9-7-6--7--9-7|
E|--------------------|


Intro Part 2

e|-------------------------------------|
B|-------------------------------------|
G|-------------------------------------|
D|-------------------------------------|
A|-66666--77777--9-7--66666--77777--9-7|
E|-------------------------------------|
   *****  *****  * *  *****  *****  * *

   
Intro Part 3

e|------------------|
B|------------------|
G|-8-8-8-8-55-666---|
D|-8-8-8-8-55-666---|
A|-6-6-6-8-33-444---|
E|------------------|



Intro Part 4 (Let Chords Ring)

e|-----------------|
B|-----------------|
G|-8----9----11-9--|
D|-8----9----11-9--|
A|-6----7----9--7--|
E|-----------------|


Pre Chorus

e|-------------------|
B|-------------------|
G|-8-88888-666-------|
D|-8-88888-666--777--|
A|-6-66666-444--777--|
E|--------------555--|

Chorus

e|-------------------------------|
B|-------------------------------|
G|-88------88------88-88888------|
D|-88------88------88-8888866666-|
A|-66------66------66-6666666666-|
E|-------------------------44444-|

Verse

e|---------------------|
B|---------------------|
G|-88888--99999--11-9--|
D|-88888--99999--11-9--|
A|-66666--77777--9--7--|
E|---------------------|

Bridge

e|-------------------------------------|
B|-------------------------------------|
G|-------------------------------------|
D|-------------------------------------|
A|-6-666666-444------6-666666-444------|
E|-------------55-2-------------55-2---|

e|-------------------------------------|
B|-------------------------------------|
G|-------------------------------------|
D|-------------------------------------|
A|-6-666666-444------6-666666-444------|
E|-------------55-2--------------55-2--|
   * ****** ***** *  * ****** ***** *
x2

e|------------------------|
B|------------------------|
G|-8---6-------8---4------|
D|-8---6--5-4--8---4--5-4-|
Tap to rate this tab
 
# A B C D E F G H I J K L M N O P Q R S T U V W X Y Z