Song name
# A B C D E F G H I J K L M N O P Q R S T U V W X Y Z

Dead Kennedys - I Fought The Law tab

-------------------------------------------------------------------------------
                             I FOUGHT THE LAW - Dead Kennedys
-------------------------------------------------------------------------------
Tabbed by: min0r_threat
E-mail: nrantj@yahoo.com

Tuning: Standard

The Dead Kennedys cover of this song is very different from the other covers/versions of
this song in both lyrics and chord progression, so hopefully I figured out the way
musically that the DK's did it (there is a lot of echo/reverb effect used that obscures 
the sound slightly).

INTRO
e|--------------|
B|--(let ring)--|
G|--5---5----|
D|--5---5----|
A|--3---3----|
E|-----------|

RIFF #1
e|--------------------------------------------------|
B|--------------------------------------------------|
G|--5-55-555--1010-12-1212--5-55-555--12-10-9-5-----|
D|--5-55-555--1010-12-1212--5-55-555--12-10-9-5-----|
A|--3-33-333--8-8--10-1010--3-33-333--10-8--7-3-----|
E|--------------------------------------------------|

VERSE
e|----------------------------------------------------------------|
B|----------------------------------------------------------------|
G|--5555-5555--99--55--5555-5555--1010--55--5555-5555-1212--55----|
D|--5555-5555--99--55--5555-5555--1010--55--5555-5555-1212--55----|
A|--3333-3333--77--33--3333-3333--8-8---33--3333-3333-1010--33----|
E|----------------------------------------------------------------|

RIFF #2
e|------------------------------------------------|
B|------------------------------------------------|
G|--5555-5555-12--12--1010--5-55-555-12-10-9-5----|
D|--5555-5555-12--12--1010--5-55-555-12-10-9-5----|
A|--3333-3333-10--10--8-8---3-33-333-10-8--7-3----|
E|------------------------------------------------|

RIFF #3
e|----------------------------------------------------------------|
B|----------------------------------------------------------------|
G|--9999-9999-9999-9999-5555-5555-555-4-44-9999-9999-9999-9999----|
D|--9999-9999-9999-9999-5555-5555-555-4-44-9999-9999-9999-9999----|
A|--7777-7777-7777-7777-3333-3333-333-2-22-7777-7777-7777-7777----|
E|----------------------------------------------------------------|

SOLO
e|--7-7-7-7-9-9-9-9-12-12-12--10--10-10--9-9-9-7-7-7-9-9-7--9--7----|
B|--7-7-7-7-9-9-9-9-12-12-12--10--10-10--9-9-9-7-7-7-9-9-7--9--7----|
G|--7-7-7-7-9-9-9-9-12-12-12--10--10-10--9-9-9-7-7-7-9-9-7--9--7----|
D|--7-7-7-7-9-9-9-9-12-12-12--10--10-10--9-9-9-7-7-7-9-9-7--9--7----|
A|------------------------------------------------------------------|
E|------------------------------------------------------------------|

SONG STRUCTURE:

INTRO
RIFF #1 x2
VERSE
RIFF #2
VERSE
RIFF #2
RIFF #3
VERSE
RIFF #2
SOLO x2
RIFF #2
VERSE
RIFF #2
VERSE
RIFF #2
RIFF #3
VERSE
RIFF #1

And that's it! Email with questions comments suggestions.
Tap to rate this tab
 
# A B C D E F G H I J K L M N O P Q R S T U V W X Y Z