Song name
# A B C D E F G H I J K L M N O P Q R S T U V W X Y Z

Dead Kennedys - The Man With The Dogs tab

Dead Kennedys
The Man with the Dogs

This is the whole order of the song!!!!!!!!!!!!!!!!!!!!




intro and verse 1:

e-|----------------------|
B-|----------------------|
G-|----------------------|
D-|--8-8-6-6--8-8-8-6-3--|-------->Play 8 times
A-|--8-8-6-6--8-8-8-6-3--|
E-|--6-6-4-4--6-6-6-4-1--|

e-|----------------------------------------|
B-|----------------------------------------|
G-|--8-8-6-6--8-8-8-6-3--8-8-6-6--8-8-8-8--|-------->Play 1 time
D-|--8-8-6-6--8-8-8-6-3--8-8-6-6--8-8-8-8--|
A-|--6-6-4-4--6-6-6-4-1--6-6-4-4--6-6-6-6--|
E-|----------------------------------------|

e-|----------------------------------------|
B-|----------------------------------------|
G-|----------------------------------------|
D-|--8-8-6-6--8-8-8-6-3--8-8-6-6--8-8-8-8--|-------->Play 1 time
A-|--8-8-6-6--8-8-8-6-3--8-8-6-6--8-8-8-8--|
E-|--6-6-4-4--6-6-6-4-1--6-6-4-4--6-6-6-6--|


chorus 1:

e-|--13--13-13-13-13-13--11--11-11-11-11-11--|-------->Play 4 times
B-|------------------------------------------|


verse 2:

e-|----------------------|
B-|----------------------|
G-|----------------------|
D-|--8-8-6-6--8-8-8-6-3--|-------->Play 6 times
A-|--8-8-6-6--8-8-8-6-3--|
E-|--6-6-4-4--6-6-6-4-1--|

e-|----------------------------------------|
B-|----------------------------------------|
G-|--8-8-6-6--8-8-8-6-3--8-8-6-6--8-8-8-8--|-------->Play 1 time
D-|--8-8-6-6--8-8-8-6-3--8-8-6-6--8-8-8-8--|
A-|--6-6-4-4--6-6-6-4-1--6-6-4-4--6-6-6-6--|
E-|----------------------------------------|

e-|----------------------------------------|
B-|----------------------------------------|
G-|----------------------------------------|
D-|--8-8-6-6--8-8-8-6-3--8-8-6-6--8-8-8-8--|-------->Play 1 time
A-|--8-8-6-6--8-8-8-6-3--8-8-6-6--8-8-8-8--|
E-|--6-6-4-4--6-6-6-4-1--6-6-4-4--6-6-6-6--|


chorus 2:

e-|--13--13-13-13-13-13--11--11-11-11-11-11--|-------->Play 4 times
B-|------------------------------------------|


Bridge 1:

e-|-----------------------------------------------------------|
B-|-----------------------------------------------------------|
G-|-----------------------------------------------------------|
D-|--10--10--9--10---10--10--9--10---8--8--7--8---8--8--7--8--|-------->Play 2 times
A-|-----------------------------------------------------------|
E-|-----------------------------------------------------------|

e-|-----------------------------------------------|
B-|-----------------------------------------------|
G-|-----------------------------------------------|
D-|--10-10-10-10-9-9-10-10--10-10-10-10-9-9-10-10-|
A-|-----------------------------------------------|
E-|-----------------------------------------------|

-----------------------------------|
-----------------------------------|
-----------------------------------|
-8-8-8-8-7-7-8-8--8-8-8-8-7-7-8-8--|------->Play 2 times
-----------------------------------|
-----------------------------------|



Verse 3:

e-|------------------------|
B-|------------------------|
G-|------------------------|
D-|--10-10-8-8--10-10-8-5--|-------->Play 6 times
A-|--10-10-8-8--10-10-8-5--|
E-|--8--8--6-6--8--8--6-3--|

e-|---------------------------------------------------|
B-|---------------------------------------------------|
G-|--10-10-8-8--10-10-10-4-5--10-10-8-8--10-10-10-10--|-------->Play 1 time
D-|--10-10-8-8--10-10-10-4-5--10-10-8-8--10-10-10-10--|
A-|--8--8--6-6--8--8--8--6-3--8--8--6-6--8--8--8--8---|
E-|---------------------------------------------------|

e-|---------------------------------------------------|
B-|---------------------------------------------------|
G-|---------------------------------------------------|
D-|--10-10-8-8--10-10-10-4-5--10-10-8-8--10-10-10-10--|-------->Play 1 time
A-|--10-10-8-8--10-10-10-4-5--10-10-8-8--10-10-10-10--|
E-|--8--8--6-6--8--8--8--6-3--8--8--6-6--8--8--8--8---|


chorus 3:

e-|--15--15-15-15-15-15--13--13-13-13-13-13--|-------->Play 4 times
B-|------------------------------------------|


Bridge 2:

e-|-------------------------------------------------------------------|
B-|-------------------------------------------------------------------|
G-|-------------------------------------------------------------------|
D-|--12--12--11--12---12--12--11--12---10--10--9--10---10--10--9--10--|-------->Play 2 times
A-|-------------------------------------------------------------------|
E-|-------------------------------------------------------------------|

e-|---------------------------------------------------|
B-|---------------------------------------------------|
G-|---------------------------------------------------|
D-|--12-12-12-12-11-11-12-12--12-12-12-12-11-11-12-12-|
A-|---------------------------------------------------|
E-|---------------------------------------------------|

-----------------------------------------------|
-----------------------------------------------|
-----------------------------------------------|
-10-10-10-10-9-9-10-10--10-10-10-10-9-9-10-10--|------->Play till the end
-----------------------------------------------|
-----------------------------------------------|
Tap to rate this tab
 
# A B C D E F G H I J K L M N O P Q R S T U V W X Y Z