Guitaretab - guitar tabs
Song name
# A B C D E F G H I J K L M N O P Q R S T U V W X Y Z

Dead Kennedys - Lets Lynch The Landlord tab

-------------------------------------------------------------------------------
			     Let's Lynch the Landlord{perfect}- Dead Kennedys
-------------------------------------------------------------------------------
Tabbed by:BIG J
Email:RescuMeFrom3@aol.com

Tuning:Standard
if you don't know how to play barre chords then learn that first, otherwise this
this is a pretty fun song to play. i'm 99.999999999999% sure that this tab is
perfect
Repeat 6x
e|-2-2--0-0--2-2--2-2-0-0-|
B|-2-2--0-0--2-2--4-4-2-0-|
G|-3-3--1-1--3-3--4-4-2-0-|
D|-4-4--2-2--4-4--4-4-2-0-|
A|-4-4--2-2--4-4--2-2-0-0-|
E|-2-2--0-0--2-2--2-2-0-0-|

e|-2-2-2-2-2-2-2--0-0-0-0-0-0-0-|
B|-4-4-4-4-4-4-4--2-2-2-2-2-2-2-|
G|-4-4-4-4-4-4-4--2-2-2-2-2-2-2-|
D|-4-4-4-4-4-4-4--2-2-2-2-2-2-2-|
A|-2-2-2-2-2-2-2--0-0-0-0-0-0-0-|
E|-2-2-2-2-2-2-2--0-0-0-0-0-0-0-|

e|-2-2--0-0--2-2--0-0-|
B|-2-2--0-0--2-2--0-0-|
G|-3-3--1-1--3-3--1-1-|
D|-4-4--2-2--4-4--2-2-|
A|-4-4--2-2--4-4--2-2-|
E|-2-2--0-0--2-2--0-0-|

e|-2-2-2-2-2-2-2--0-0-0-0-0-0-0--4-4-4-4-4-4-4-4-4-4-4-4-4-4-|
B|-4-4-4-4-4-4-4--2-2-2-2-2-2-2--6-6-6-6-6-6-6-6-6-6-6-6-6-6-|
G|-4-4-4-4-4-4-4--2-2-2-2-2-2-2--6-6-6-6-6-6-6-6-6-6-6-6-6-6-|
D|-4-4-4-4-4-4-4--2-2-2-2-2-2-2--6-6-6-6-6-6-6-6-6-6-6-6-6-6-|
A|-2-2-2-2-2-2-2--0-0-0-0-0-0-0--4-4-4-4-4-4-4-4-4-4-4-4-4-4-|
E|-2-2-2-2-2-2-2--0-0-0-0-0-0-0--4-4-4-4-4-4-4-4-4-4-4-4-4-4-|

Repeat 6x
e|-2-2--0-0--2-2--2-2-0-0-|
B|-2-2--0-0--2-2--4-4-2-0-|
G|-3-3--1-1--3-3--4-4-2-0-|
D|-4-4--2-2--4-4--4-4-2-0-|
A|-4-4--2-2--4-4--2-2-0-0-|
E|-2-2--0-0--2-2--2-2-0-0-|

e|-2-2-2-2-2-2-2--0-0-0-0-0-0-0-|
B|-4-4-4-4-4-4-4--2-2-2-2-2-2-2-|
G|-4-4-4-4-4-4-4--2-2-2-2-2-2-2-|
D|-4-4-4-4-4-4-4--2-2-2-2-2-2-2-|
A|-2-2-2-2-2-2-2--0-0-0-0-0-0-0-|
E|-2-2-2-2-2-2-2--0-0-0-0-0-0-0-|

e|-2-2--0-0--2-2--0-0-|
B|-2-2--0-0--2-2--0-0-|
G|-3-3--1-1--3-3--1-1-|
D|-4-4--2-2--4-4--2-2-|
A|-4-4--2-2--4-4--2-2-|
E|-2-2--0-0--2-2--0-0-|

e|-2-2-2-2-2-2-2--0-0-0-0-0-0-0--4-4-4-4-4-4-4-4-4-4-4-4-4-4-|
B|-4-4-4-4-4-4-4--2-2-2-2-2-2-2--6-6-6-6-6-6-6-6-6-6-6-6-6-6-|
G|-4-4-4-4-4-4-4--2-2-2-2-2-2-2--6-6-6-6-6-6-6-6-6-6-6-6-6-6-|
D|-4-4-4-4-4-4-4--2-2-2-2-2-2-2--6-6-6-6-6-6-6-6-6-6-6-6-6-6-|
A|-2-2-2-2-2-2-2--0-0-0-0-0-0-0--4-4-4-4-4-4-4-4-4-4-4-4-4-4-|
E|-2-2-2-2-2-2-2--0-0-0-0-0-0-0--4-4-4-4-4-4-4-4-4-4-4-4-4-4-|

Repeat 3x
e|-4-4-4--2-2--0-|
B|-6-6-6--4-4--2-|
G|-6-6-6--4-4--2-|
D|-6-6-6--4-4--2-|
A|-4-4-4--2-2--0-|
E|-4-4-4--2-2--0-|

Repeat 4x
e|-2-2--0-0-|
B|-2-2--0-0-|
G|-3-3--1-1-|
D|-4-4--2-2-|
A|-4-4--2-2-|
E|-2-2--0-0-|
[ Tab from: http://www.guitaretab.com/d/dead-kennedys/4849.html ]
Solo
e|--------------------------------------|------------------------------------
B|--------------------------------------|------------------------------------
G|----------9-8---------9-8-------------|----------------------11-10---------
D|-/9-9---7-----9-9---7-----9-9---7-9---|-/11-11-11-11-11----9-------11-11---
A|------9-----------9-----------9-----9-|-----------------11---------------11
E|--------------------------------------|------------------------------------


e|--------------------------------------------------------------------------|
B|-----------------------9-9-9----11-9-9-9----11----9------------------9----|
G|---11-10------------11-------11----------11----11---10-8----------11---10-|
D|-9-------11-11----9--------------------------------------11-9--11---------|
A|---------------11---------------------------------------------------------|
E|--------------------------------------------------------------------------|

e|--------------|
B|--------------|
G|-8------------|
D|---11-9----11-|
A|--------11----|
E|--------------|

Repeat 4x
e|-4-4-4--2-2--1--2-|
B|-6-6-6--4-4--3--4-|
G|-6-6-6--4-4--3--4-|
D|-6-6-6--4-4--3--4-|
A|-4-4-4--2-2--1--2-|
E|-4-4-4--2-2--1--2-|

Repeat 4x
e|-2-2--0-0--2-2--2-2-0-0-|
B|-2-2--0-0--2-2--4-4-2-0-|
G|-3-3--1-1--3-3--4-4-2-0-|
D|-4-4--2-2--4-4--4-4-2-0-|
A|-4-4--2-2--4-4--2-2-0-0-|
E|-2-2--0-0--2-2--2-2-0-0-|

e|-2-2-2-2-2-2-2--0-0-0-0-0-0-0-|
B|-4-4-4-4-4-4-4--2-2-2-2-2-2-2-|
G|-4-4-4-4-4-4-4--2-2-2-2-2-2-2-|
D|-4-4-4-4-4-4-4--2-2-2-2-2-2-2-|
A|-2-2-2-2-2-2-2--0-0-0-0-0-0-0-|
E|-2-2-2-2-2-2-2--0-0-0-0-0-0-0-|

e|-2-2--0-0--2-2--0-0-|
B|-2-2--0-0--2-2--0-0-|
G|-3-3--1-1--3-3--1-1-|
D|-4-4--2-2--4-4--2-2-|
A|-4-4--2-2--4-4--2-2-|
E|-2-2--0-0--2-2--0-0-|

e|-2-2-2-2-2-2-2--0-0-0-0-0-0-0--4-4-4-4-4-4-4-4-4-4-4-4-4-4-|
B|-4-4-4-4-4-4-4--2-2-2-2-2-2-2--6-6-6-6-6-6-6-6-6-6-6-6-6-6-|
G|-4-4-4-4-4-4-4--2-2-2-2-2-2-2--6-6-6-6-6-6-6-6-6-6-6-6-6-6-|
D|-4-4-4-4-4-4-4--2-2-2-2-2-2-2--6-6-6-6-6-6-6-6-6-6-6-6-6-6-|
A|-2-2-2-2-2-2-2--0-0-0-0-0-0-0--4-4-4-4-4-4-4-4-4-4-4-4-4-4-|
E|-2-2-2-2-2-2-2--0-0-0-0-0-0-0--4-4-4-4-4-4-4-4-4-4-4-4-4-4-|

Repeat 3x
e|-4-4-4--2-2--1--2-|
B|-6-6-6--4-4--3--4-|
G|-6-6-6--4-4--3--4-|
D|-6-6-6--4-4--3--4-|
A|-4-4-4--2-2--1--2-|
E|-4-4-4--2-2--1--2-|

Repeat 3x
e|-9--9--9---7-7--6--7-|-9--|
B|-11-11-11--9-9--8--9-|-11-|
G|-11-11-11--9-9--8--9-|-11-|
D|-11-11-11--9-9--8--9-|-11-|
A|-9--9--9---7-7--6--7-|-9--|
E|-9--9--9---7-7--6--7-|-9--|(let ring)

Play whole song with down strokes

| /  slide up
| \  slide down
| h  hammer-on
| p  pull-off
| ~  vibrato
| +  harmonic
| x  Mute note
===============================================================================PLEEZ RATE!!!!
Related for Lets Lynch The Landlord tab
×
Best way to learn
"Lets Lynch The Landlord"