Song name
# A B C D E F G H I J K L M N O P Q R S T U V W X Y Z

Dead Kennedys - Stealing Peoples Mail tab

-------------------------------------------------------------------------------
Stealing People's Mail - Dead Kennedys
Fresh Fruit For Rotting Vegetables
-------------------------------------------------------------------------------
Tabbed by: axeslash
Email: holmzito@yahoo.com

Tuning:
Guitar 1: EADGBE
Guitar 2: EADGBE

The first guitar is more audible at most times, and the second guitar plays
essentially the same thing (except where noted), it has some muted notes,
but it is not noticeably different enough for me to tab.  During the chorus
and solo the 2nd guitar is the guitar predominantly heard.

Verse:
e|----------------|     e|-------------------|     
B|----------------|     B|-------------------|     
G|-7-7-7-5-5-7----|     G|-9-9-7-7-9-9-------|     
D|-5-5-5-3-3-5----| x4  D|-7-7-5-5-7-7-9--9--| x2  
A|----------------|     A|-------------7--7--|     
E|----------------|     E|-------------------|     

e|-------------------------------------------|  
B|-------------------------------------------|  
G|-11-11-9-9-11-11---------9-9-7-7-9-9-------|  
D|--9--9-7-7--9--9-11--11--7-7-5-5-7-7-9--9--|  
A|------------------9---9--------------7--7--|  
E|-------------------------------------------|  

e|--------------------------------------------|
B|--------------------------------------------|
G|-11-11-9-9-11-11---------11-11-11-9-9-11----|
D|--9--9-7-7--9--9-11--11---9--9--9-7-7--9----|
A|------------------9---9---------------------|
E|--------------------------------------------|

e|----------------|     e|-------------------------------| 
B|----------------|     B|-------------------------------|  
G|-7-7-7-5-5-7----|     G|-9-9-9-7-7-9----7-7-7-5-5-7----|  
D|-5-5-5-3-3-5----| x2  D|-7-7-7-5-5-7----5-5-5-3-3-5----|  
A|----------------|     A|-------------------------------|  
E|----------------|     E|-------------------------------|  

Chorus:
e|-----------------------|     e|---------------------------------------|
B|-----------------------|     B|---------------------------------------|
G|-----------------------|     G|---------------------------------------|
D|-5--3-5-3---3535-------| x2  D|-7--5-7-5---5757--------5--3-5-3---5---| 
A|----------5------5--5--|     A|----------7-------7--7-----------5-----|
E|-----------------------|     E|---------------------------------------|

Verse:
e|-------------------------|     e|---------------------------|
B|-------------------------|     B|---------------------------|
G|-10-10-8-8-10-10---------|     G|-12-12-10-10-12-12---------|
D|--8--8-6-6--8--8-10--10--| x2  D|-10-10--8--8-10-10-12--12--|
A|------------------8---8--|     A|-------------------10--10--|
E|-------------------------|     E|---------------------------|

e|-------------------------|  e|-------------------------|
B|-------------------------|  B|-------------------------|
G|-10-10-8-8-10-10---------|  G|-12-12-12-12-10-10-10-10-|
D|--8--8-6-6--8--8-10--10--|  D|-10-10-10-10--8--8--8--8-| x3
A|------------------8---8--|  A|-------------------------|
E|-------------------------|  E|-------------------------|

e|-------------------------|
B|-------------------------|
G|-12-12-12-12-12-12-12-12-|
D|-10-10-10-10-10-10-10-10-|
A|-------------------------|
E|-------------------------|

Solo: Guitar 2
e|-8-9-10-8-9-10-8-9-10-8-9-10-8-9-10-8-9-10-|           e|-[10]---------|
B|-------------------------------------------|           B|--------------|
G|-------------------------------------------|           G|--------------|
D|-------------------------------------------| x3        D|--------------|
A|-------------------------------------------|           A|--------------|
E|-------------------------------------------|           E|--------------|
Guitar 1                                                         
e|-------------------------|     e|-----------------------------------------|
B|-------------------------|     B|-----------------------------------------|
G|-10-10-8-8-10-10---------|     G|-12-12-10-10-12-12--------14-14-14-14----|
D|--8--8-6-6--8--8-10--10--| x2  D|-10-10--8--8-10-10-12--12-12-12-12-12----|
A|------------------8---8--|     A|-------------------10--10----------------|
E|-------------------------|     E|-----------------------------------------|
Verse:
e|----------------|     e|-------------------------------| 
B|----------------|     B|-------------------------------|  
G|-7-7-7-5-5-7----|     G|-9-9-9-7-7-9----7-7-7-5-5-7----|  
D|-5-5-5-3-3-5----| x2  D|-7-7-7-5-5-7----5-5-5-3-3-5----|  
A|----------------|     A|-------------------------------|  
E|----------------|     E|-------------------------------|  

Chorus:
e|-----------------------|     e|------------------------|  
B|-----------------------|     B|------------------------|  
G|-----------------------|     G|------------------------|  
D|-5--3-5-3---3535-------| x2  D|-8--6-8-6---6868--------|   
A|----------5------5--5--|     A|----------8-------8--8--|  
E|-----------------------|     E|------------------------|

e|----------------------------------------------------------------|
B|----------------------------------------------------------------|
G|----------------------------------------------------------------|
D|-10--8-10-8----10-8-10-8---------12-10-12-10-12-10-12-10-12-----|
A|------------10-----------10--10---------------------------------|
E|----------------------------------------------------------------|

Verse:
e|-------------------|     e|-------------------------|
B|-------------------|     B|-------------------------|
G|-9-9-7-7-9-9-------|     G|-11-11-9-9-11-11---------|
D|-7-7-5-5-7-7-9--9--| x2  D|--9--9-7-7--9--9-11--11--|
A|-------------7--7--|     A|------------------9---9--|
E|-------------------|     E|-------------------------|

e|-----------------------------------------|
B|-----------------------------------------|
G|-9-9-7-7-9-9-------11----9----11----9----|
D|-7-7-5-5-7-7-9--9---9----7-----9----7----|
A|-------------7--7------------------------|
E|-----------------------------------------|
Mini Solo:
Guitar 2:
e|-8-9-10-8-9-10-8-9-10-|
B|----------------------|
G|----------------------|
D|----------------------| x4
A|----------------------|
E|----------------------|

e|-----------------------|
B|-----------------------|
G|-11----9----11----9----|
D|--9----7-----9----7----|
A|-----------------------|
E|-----------------------|
Verse:
e|-------------------------|     e|---------------------------|
B|-------------------------|     B|---------------------------|
G|-10-10-8-8-10-10---------|     G|-12-12-10-10-12-12---------|
D|--8--8-6-6--8--8-10--10--| x2  D|-10-10--8--8-10-10-12--12--|
A|------------------8---8--|     A|-------------------10--10--|
E|-------------------------|     E|---------------------------|

e|---------------------------------------------------|
B|---------------------------------------------------|
G|-10-10-8-8-10-10---------12-12-10-10-12-12---------|
D|--8--8-6-6--8--8-10--10--10-10--8--8-10-10-12--12--| 
A|------------------8---8--------------------10--10--|
E|---------------------------------------------------|

e|-------------------|
B|-------------------|
G|-12-12-10-10-12----|
D|-10-10--8--8-10----|
A|-------------------|
E|-------------------|

| [] tremolo pick
| /  slide up
| \  slide down
| h  hammer-on
| p  pull-off
| ~  vibrato
| +  harmonic
| x  Mute note
===============================================================================
Tap to rate this tab
# A B C D E F G H I J K L M N O P Q R S T U V W X Y Z