Song name
# A B C D E F G H I J K L M N O P Q R S T U V W X Y Z

Dead Kennedys - Jock-o-rama tab

Jock-o-rama
Intro
------------------------------|
----------4-----------------4-|
-------5-----5-----------5----|
-2--6-----------6--2--6-------|

Main Riff/Verse:
--------------------------------------------------------|
--------------------------------------------------------|
--------------------------------------------------------|
-5--3-3-0-0-3-3-5-5-3--0--0-3-3-5--3-3-0-0-3-3-5-5-3--0-|
Tap to rate this tab
# A B C D E F G H I J K L M N O P Q R S T U V W X Y Z