Song name
# A B C D E F G H I J K L M N O P Q R S T U V W X Y Z

Dead Kennedys - Hellnation tab

-------------------------------------------------------------------------------
			     Hellnation -Dead Kennedys
-------------------------------------------------------------------------------

The main riff is played one of two ways. the first one, in my opinion, sounds better, 
the way that the rest of the chords are played, the second one seems more likely. it's up 
you really. Without distortion the A# won't sound right.

Main Riff:
   A                                            C     D   A#
|---------------------------------------------------------------------------|
|-2-2-2-0h2-2-2-0h2-2-2-2-5-5-7--------0h2-2-2-0h2-2-2-2-5-5-7--------------|
|-2-2-2-0h2-2-2-0h2-2-2-2-5-5-7--3-3-3-0h2-2-2-0h2-2-2-2-5-5-7--------------|
|-2-2-2-0h2-2-2-0h2-2-2-2-5-5-7--3-3-3-0h2-2-2-0h2-2-2-2-5-5-7--------------|
|-0-0-0-0---0-0-0---0-0-0- 3-3-5--1-1-1-0---0-0-0---0-0-0-3-3-5-------------|
|---------------------------------------------------------------------------|

   G A                                            C          D      A#
|----------------------------8--8--10---------------------------------------|
|----------------------------8--8--10---------------------------------------|
|-4/6-6-6-4/6-6-6-4/6-6-6-6-9--9--11-4/7-7-7-4/6-6-6-4-6-6-6-6--------------|
|-5/7-7-7-5/7-7-7-5/7-7-7-7-10-10-12-5/8-8-8-5/7-7-7-5/7-7-7-7--------------|
|-5/7-7-7-5/7-7-7-5/7-7-7-7-10-10-12-5/8-8-8-5/7-7-7-5/7-7-7-7--------------|
|-3/5-5-5-3/5-5-5-3/5-5-5-5-8--8--10-3/6-6-6-3/5-5-5-3/5-5-5-5--------------|

 Chorus:
   A C     D
|-5-8--10---------------5-8--10-8-8-8-8--5-8- 10-----8----8-5-8--10--8-8-8-8-----|
|-5-8--10---------------5-8--10-8-8-8-8--5-8- 10-11b--11b-- 5-8--10--8-8-8-8-----|
|-6-9--11--8-10-10brp8- 6-9--11-------- --6-9- 11------------6-9--11--------  ---|
|-7-10-12---------------7-10-12----------7-10-12------------7-10-12--------------|
|-7-10-12---------------7-10-12----------7-10-12------------7-10-12--------------|
|-5-8--10---------------5-8--10----------5-8--10------------5-8--10--------- ----|

After Chorus:
   G     F#
|-3-3-2-3-3-2-3-3-2-3-3-2-----------------------------------------------------------|
|-3-3-2-3-3-2-3-3-2-3-3-2-----------------------------------------------------------|
|-4-4-3-4-4-3-4-4-3-4-4-3-----------------------------------------------------------|
|-5-5-4-5-5-4-5-5-4-5-5-4-----------------------------------------------------------|
|-5-5-4-5-5-4-5-5-4-5-5-4-----------------------------------------------------------|
|-3-3-2-3-3-2-3-3-2-3-3-2-----------------------------------------------------------|

Before Solo:
      A                                                        C
|-----------------------------------------------------------------------------|
|-0-2-2-2-0-2-2-2-0-2-2-2-0-2-2-2-5-5-5-5-5-5-5-5-5-5-5-5-5-5-5-5-------------|
|-0-2-2-2-0-2-2-2-0-2-2-2-0-2-2-2-5-5-5-5-5-5-5-5-5-5-5-5-5-5-5-5-------------|
|-0-2-2-2-0-2-2-2-0-2-2-2-0-2-2-2-5-5-5-5-5-5-5-5-5-5-5-5-5-5-5-5-------------|
|-0-0-0-0-0-0-0-0-0-0-0-0-0-0-0-0-3-3-3-3-3-3-3-3-3-3-3-3-3-3-3-3-------------|
|-----------------------------------------------------------------------------|

Solo:
|-/1717171717-15/1717171717-15-12-12h15p12---------------------------|
|---------------------------------------------15p13---------13-15----|
|---------------------------------------------------14----14-- ------|
|--------------------------------------------------------------------|
|--------------------------------------------------------------------|
|--------------------------------------------------------------------|

|-----12-----12-----12------12--15/1717171717171717--20-17-----------|
|-15b----15b----15b----15b-------------------------------------------|
|--------------------------------------------------------------------|
|---------------------------------------------------------------- ---|
|--------------------------------------------------------------------|
|------------------------------------------------------------- ------|


|-20p17p15-20p17p15-20p17p15-12--------12-----12-----12-----------------------|
|---------------------------------15-15b----15b----15b------------------------|
|-----------------------------------------------------------------------------|
|-----------------------------------------------------------------------------|
|-----------------------------------------------------------------------------|
|-----------------------------------------------------------------------------|

|-----1212-----12------12-----------------------------------------------------|
|-15b------15b----15b-----15brp13---------------------------------------------|
|---------------------------------14------------------------------------------|
|-----------------------------------------------------------------------------|
|-----------------------------------------------------------------------------|
|-----------------------------------------------------------------------------|

Main Riff
Chorus
After Chorus
Main Riff
Chorus
After Chorus
Pre Solo
Solo
After Chorus
Main Riff
Chorus
After Chorus

Just listen to the song. the timing isn't that hard to get down, although the song is 
relatively fast and it's easy to play the chords too deliberately and not quick enough. 
is only my second tab, and it's my first tab with a solo in the song, so give me a good rating.
Tap to rate this tab
 
# A B C D E F G H I J K L M N O P Q R S T U V W X Y Z