Song name
# A B C D E F G H I J K L M N O P Q R S T U V W X Y Z

Dead Kennedys - Kepone Factory tab

Kepone Factory
By Dead Kennedys

Intro
e------------------------------------------------|
B------------------------------------------------|
G-----------------------5-------------------5----|
D-7-7-7-7---7--5--7--3--5--5---77--5--7--3--5----|
A-----------7--5--7--3--3--5---77--5--7--3--3----|
E-----------5--3--5--1-----3---55--3--5--1-------|

Verse
e--------------------|
B--------------------|
G-------------5-4----|
D-777-555-777-5-4----|
A-777-555-777-3-2----|
E-555-333-555--------|

Chorus
e------------------------------------------------------|
B--------5----------5----------5-----------------------|
G-77-5-7-5---77-5-7-5---77-5-7-5---9999999--5555555----|
D-77-5-7-3---77-5-7-3---77-5-7-3---9999999--5555555----|
A-55-3-5-----55-3-5-----55-3-5-----7777777--3333333----|

Bridge
e----------------------------------------------------|
B----------------------------------77-6-8--77-6-8----|
G-7-5-7-5-7-5-7-5----9-7-9-7-9-7-9-77-6-8--77-6-8----|
D-7-5-7-5-7-5-7-5----9-7-9-7-9-7-9-99-4-6--99-4-6----|
A-5-3-5-3-5-3-5-3----7-5-7-5-7-5-7-------------------|
E----------------------------------------------------|

Outro
e-----------------------------------------------------|
B-----------------------------------------------------|
G--------5----------5----------5--9999999-------------|
D-77-5-7-5---77-5-7-5---77-5-7-5--7777777--5-----5----|
A-77-5-7-3---77-5-7-3---77-5-7-3--7777777--5-----5----|
E-55-3-5-----55-3-5-----55-3-5-------------3-----3----|

Song Order

Intro  1x
Verse  6x
Chorus 1x
Verse  5x
Chorus 1x
Bridge 1x
Verse  4x
Outro  1x

PLEASE COMMENT!!!!
Tap to rate this tab
 
# A B C D E F G H I J K L M N O P Q R S T U V W X Y Z