Song name
# A B C D E F G H I J K L M N O P Q R S T U V W X Y Z

Dead Kennedys - Your Emotions tab

Dead Kennedys - Your Emotions, Off The Album Fresh Fruit for Rotting Vegetables In 1980 
 

e|-----|---------------------------------|
B|-----|---------------------------------|
G|-----|---------------------------------|
D|-----|-9-9-9-9---------9-9-9-9---------|
A|-5-7-|-7-7-7-7-5-5-7-7-7-7-7-7-5-5-7-7-|
E|-3-5-|---------3-3-5-5---------3-3-5-5-|

e|-----------------------------------------------------------------|
B|-----------------------------------------------------------------|
G|-----------------------------------------------------------------|
D|-9-9-9-9---------9-9-9-9---------9-9-9-9---------9-9-9-9---------|
A|-7-7-7-7-5-5-7-7-7-7-7-7-5-5-7-7-7-7-7-7-5-5-7-7-7-7-7-7-9-9-9-9-|
E|---------3-3-5-5---------3-3-5-5---------3-3-5-5---------7-7-7-7-|

e|---------------------------------|
B|---------------------------------|
G|---------------------------------|
D|-9-9-9-9---------9-9-9-9---------|
A|-7-7-7-7-5-5-7-7-7-7-7-7-5-5-7-7-|
E|---------3-3-5-5---------3-3-5-5-|

e|-----------------------------------------------------------------|
B|-----------------------------------------------------------------|
G|-----------------------------------------------------------------|
D|-9-9-9-9---------9-9-9-9---------9-9-9-9---------9-9-9-9---------|
A|-7-7-7-7-5-5-7-7-7-7-7-7-5-5-7-7-7-7-7-7-5-5-7-7-7-7-7-7-9-9-9-9-|
E|---------3-3-5-5---------3-3-5-5---------3-3-5-5---------7-7-7-7-|

e|-------------------------------------------------------------------|
B|-------------------------------------------------------------------|
G|-------------------------------------------------------------------|
D|-9-9-11-11-14-14-13-13-9-9-11-11-14-14-13-13-9-9-11-11-14-14-13-13-|
A|-7-7--9--9-12-12-11-11-7-7--9--9-12-12-11-11-7-7--9--9-12-12-11-11-|
E|-------------------------------------------------------------------|

e|---------------------------------|
B|---------------------------------|
G|---------9-9-9-9---------9-9-9-9-|
D|-9-9-9-9-7-7-7-7-9-9-9-9-7-7-7-7-|
A|-7-7-7-7---------7-7-7-7---------|
E|---------------------------------|

e|---------------------------------|
B|---------------------------------|
G|---------------------------------|
D|-9-9-9-9---------9-9-9-9---------|
A|-7-7-7-7-5-5-7-7-7-7-7-7-5-5-7-7-|
E|---------3-3-5-5---------3-3-5-5-|

e|-----------------------------------------------------------------|
B|-----------------------------------------------------------------|
G|-----------------------------------------------------------------|
D|-9-9-9-9---------9-9-9-9---------9-9-9-9---------9-9-9-9---------|
A|-7-7-7-7-5-5-7-7-7-7-7-7-5-5-7-7-7-7-7-7-5-5-7-7-7-7-7-7-9-9-9-9-|
E|---------3-3-5-5---------3-3-5-5---------3-3-5-5---------7-7-7-7-|

e|-------------------------------------------------------------------|
B|-------------------------------------------------------------------|
G|-------------------------------------------------------------------|
D|-9-9-11-11-14-14-13-13-9-9-11-11-14-14-13-13-9-9-11-11-14-14-13-13-|
A|-7-7--9--9-12-12-11-11-7-7--9--9-12-12-11-11-7-7--9--9-12-12-11-11-|
E|-------------------------------------------------------------------|

e|---------------------------------|
B|---------------------------------|
G|---------9-9-9-9---------9-9-9-9-|
D|-9-9-9-9-7-7-7-7-9-9-9-9-7-7-7-7-|
A|-7-7-7-7---------7-7-7-7---------|
E|---------------------------------|

e|-----------------------------------------------------------------|
B|-----------------------------------------------------------------|
G|-----------------------------------------------------------------|
D|-9-9-9-9---------9-9-9-9---------9-9-9-9---------9-9-9-9---------|
A|-7-7-7-7-9-9-9-9-7-7-7-7-9-9-9-9-7-7-7-7-9-9-9-9-7-7-7-7-9-9-9-9-|
E|---------7-7-7-7---------7-7-7-7---------7-7-7-7---------7-7-7-7-|


Tap to rate this tab
 
# A B C D E F G H I J K L M N O P Q R S T U V W X Y Z