Song name
# A B C D E F G H I J K L M N O P Q R S T U V W X Y Z

Dead Kennedys - Trust Your Mechanic tab

Dead Kennedys - Trust Your Mechanic, Off The Album Plastic Surgery Disasters In 1982


Intro 
            X's 2
e|-5-5--5-5--3--5---8--3-3-|
B|-7-7--5-5--5--7--10--5-5-|
G|-7-7--6-6--5--7--10--5-5-|
D|-7-7--7-7--5--7--10--5-5-|
A|-5-5--7-7--3--5---8--3-3-|
E|------5-5----------------|

Verse 
         X's 6
e|-5-5-6-6-5-5-3-3--|
B|-7-7-8-8-7-7-5-5--|
G|-7-7-8-8-7-7-5-5--|
D|-7-7-8-8-7-7-5-5--|
A|-5-5-6-6-5-5-3-3--|
E|------------------|

Chorus 
         x's 4 	|     X's 1
e|--8--8--9--9--|-5-5-5-5--5-5-5-5-|
B|-10-10-11-11--|-7-7-7-7--7-7-7-7-|
G|-10-10-11-11--|-7-7-7-7--7-7-7-7-|
D|-10-10-11-11--|-7-7-7-7--7-7-7-7-|
A|--8--8--9--9--|-5-5-5-5--5-5-5-5-|
E|--------------|------------------|

Verse 
        X's 4
e|-5-5-6-6-5-5-3-3--|
B|-7-7-8-8-7-7-5-5--|
G|-7-7-8-8-7-7-5-5--|
D|-7-7-8-8-7-7-5-5--|
A|-5-5-6-6-5-5-3-3--|
E|------------------|

Chorus 
   X's 4	|     X's 1
e|--8--8--9--9--|-5-5-5-5--|
B|-10-10-11-11--|-7-7-7-7--|
G|-10-10-11-11--|-7-7-7-7--|
D|-10-10-11-11--|-7-7-7-7--|
A|--8--8--9--9--|-5-5-5-5--|
E|--------------|----------|

Bridge 
          X's 3
e|-5-5--5-5--3--5---8--3-3-|
B|-7-7--5-5--5--7--10--5-5-|
G|-7-7--6-6--5--7--10--5-5-|
D|-7-7--7-7--5--7--10--5-5-|
A|-5-5--7-7--3--5---8--3-3-|
E|------5-5----------------|

slight pick slides

Verse 
        X's 6
e|-5-5-6-6-5-5-3-3--|
B|-7-7-8-8-7-7-5-5--|
G|-7-7-8-8-7-7-5-5--|
D|-7-7-8-8-7-7-5-5--|
A|-5-5-6-6-5-5-3-3--|
E|------------------|

Chrous 
        X's 4	|    X's 1
e|--8--8--9--9--|-5-5-5-5--|
B|-10-10-11-11--|-7-7-7-7--|
G|-10-10-11-11--|-7-7-7-7--|
D|-10-10-11-11--|-7-7-7-7--|
A|--8--8--9--9--|-5-5-5-5--|
E|--------------|----------|

Verse 
        X's 4
e|-5-5-6-6-5-5-3-3--|
B|-7-7-8-8-7-7-5-5--|
G|-7-7-8-8-7-7-5-5--|
D|-7-7-8-8-7-7-5-5--|
A|-5-5-6-6-5-5-3-3--|
E|------------------|

Chorus
    X's 4	|     X's 1
e|--8--8--9--9--|-5-5-5-5--5-5-5-5-|
B|-10-10-11-11--|-7-7-7-7--7-7-7-7-|
G|-10-10-11-11--|-7-7-7-7--7-7-7-7-|
D|-10-10-11-11--|-7-7-7-7--7-7-7-7-|
A|--8--8--9--9--|-5-5-5-5--5-5-5-5-|
E|--------------|------------------|

slight pickslides

Outro 
   X's 3                   | X's1|
e|-5-5--5-5--3--5---8--3-3-|-5-5-|
B|-7-7--5-5--5--7--10--5-5-|-7-7-|
G|-7-7--6-6--5--7--10--5-5-|-7-7-|
D|-7-7--7-7--5--7--10--5-5-|-7-7-|
A|-5-5--7-7--3--5---8--3-3-|-5-5-|
E|------5-5----------------|-----|
Tap to rate this tab
# A B C D E F G H I J K L M N O P Q R S T U V W X Y Z