Guitaretab - guitar tabs
Song name
# A B C D E F G H I J K L M N O P Q R S T U V W X Y Z

Dead Kennedys - Shrink tab

Dead Kennedys -  Shrink, Off The Album Bedtime for Democracy In 1986

Intro/Main verse

e--------------------------------------------|
B--------------------------------------------|
G-4-4-4--2--4-4-4----------------------------|
D-4-4-4--2--4-4-4--6-6-6-6-7-7-7-7-----------|
A-2-2-2--0--2-2-2--6-6-6-6-7-7-7-7-----------|
E------------------4-4-4-4-5-5-5-5-----------|

Bridge
[ Tab from: http://www.guitaretab.com/d/dead-kennedys/96244.html ]
e--------------------------------------------|
B--------------------------------------------|
G-4-4-4-4-4-4-4-4-4-4-4-4--6-6-7-6-----------|
D-4-4-4-4-4-4-4-4-4-4-4-4--6-6-7-6-----------|
A-2-2-2-2-2-2-2-2-2-2-2-2--4-4-5-4-----------|
E--------------------------------------------|

Chorus

e---------------------------------------|
B---------------------------------------|
G-4-4-4-4-4-4-4-4---6---7---6---4---2---|
D-4-4-4-4-4-4-4-4---6---7---6---4---2---|
A-2-2-2-2-2-2-2-2---4---5---4---2---0---|
E---------------------------------------|
Related for Shrink tab
×
Shrink