Song name
# A B C D E F G H I J K L M N O P Q R S T U V W X Y Z

Dead Kennedys - Take This Job And Shove It tab

Dead Kennedys -  Take This Job and Shove It, Off The Album Bedtime for Democracy In 1986

e|------------------------------------------------------------------------|
B|------------------------------------------------------------------------|
G|------------------------------------------------------------------------|
D|--------------------------------------------------------9-9-----11-11---|
A|-7---7-7-7-7-7-5-7-7-7-7-7-5-4-3--7-7-7-7-7-5-7-7-7-7-7-7-7-9-9--9--9-9-|
E|-5---5-5-5-5-5-3-5-5-5-5-5-3-2-0--5-5-5-5-5-3-5-5-5-5-5-----7-7-------7-|

e|------------------------------------------------------------------------|
B|------------------------------------------------------------------------|
G|------------------------------------------------------------------------|
D|--------------------------------------------------------9-9-----11-11---|
A|-7---7-7-7-7-7-5-7-7-7-7-7-5-4-3--7-7-7-7-7-5-7-7-7-7-7-7-7-9-9--9--9-9-|
E|-5---5-5-5-5-5-3-5-5-5-5-5-3-2-0--5-5-5-5-5-3-5-5-5-5-5-----7-7-------7-|

e|------------------------------------------------------------------------|
B|------------------------------------------------------------------------|
G|------------------------------------------------------------------------|
D|--------------------------------------------------------9-9-----11-11---|
A|-7---7-7-7-7-7-5-7-7-7-7-7-5-4-3--7-7-7-7-7-5-7-7-7-7-7-7-7-9-9--9--9-9-|
E|-5---5-5-5-5-5-3-5-5-5-5-5-3-2-0--5-5-5-5-5-3-5-5-5-5-5-----7-7-------7-|
Tap to rate this tab
# A B C D E F G H I J K L M N O P Q R S T U V W X Y Z