Song name
# A B C D E F G H I J K L M N O P Q R S T U V W X Y Z

Dead Kennedys - Fleshdunce Off tab

Dead Kennedys - Fleshdunce Off, The Album Bedtime for Democracy In 1986 



INTRO
e|------------------------------------7---------------|
B|--------------------------------------7-------------|
G|----------------------------------------------------|
D|----------------------------------------------------|
A|-9-999-7-7-777-9-9-999-7-7-777-9--9-----------------|
E|-7-777-5-5-555-7-7-777-5-5-555-7--7-----------------|

RIFF 1
e|-------------------------------------------|
B|-------------------------------------------|
G|-------------------------------------------|
D|---------------------10-9-7----------------|
A|-999999-7-4-7-999999-8--7-5----------------|
E|-777777-5-2-5-777777-----------------------|

RIFF 2
e|------------------------------------------------------------------------|
B|------------------------------------------------------------------------|
G|------------------------------------------------------------------------|
D|77777-55555-------------77777-55555-------------77777-55555-------------|
A|55555-33333-77777-77777-55555-33333-77777-77777-55555-3333377777-77777--|
E|------------55555-55555-------------55555-55555------------55555-55555--|

e|--------------------------------------------------|
B|--------------------------------------------------|
G|--------------------------------------------------|
D|-77777-55555--------------------------------------|
A|-55555-33333-77777-777-577777-777-9---------------|
E|-------------55555-555-355555-555-7---------------|

RIFF 3
e|------------------------------------------------------------|
B|------------------------------------------------------------|
G|------------------------------------------------------------|
D|--------77-99-10101010101010101010101010101010--------------|
A|-999-99-55-77-8-8-8-8-8-8-8-8-8-8-8-8-8-8-8-8---------------|
E|-777-77-----------------------------------------------------|

e|----------------------------------------------------|
B|----------------------------------------------------|
G|----------------------------------------------------|
D|-101010-1010-99-77----------------------------------|
A|-8-8-8--8-8--77-55-9999999999999999-----------------|
E|-------------------7777777777777777-----------------|

After Riff 3 
is play twice
move up two frets
then play it twice more
Tap to rate this tab
# A B C D E F G H I J K L M N O P Q R S T U V W X Y Z