Dead Man In Reno - From Here I Can See The Shore tab

Dead Man in Reno
From here I can see the shore

B-F#-B-E-G#-C#

Tabbed by andherembrace

andherembrace@gmail.com


Riff 1  0:00-0:17,0:42-0:59,1:39-1:56
------------------------------------------------------------------|
------------------------------------------------------------------|
------------------------------------------------------------------|
-------------------------------------------------8---7------------|
pm-*-8-*-10-*-7--*-*-8-*-7-*-8---*-*-8-*-7-*-8-*---*---*-8-*-7-*--|
-7-7---7----7----8-8---8---8-----5-5---5---5---5---5---5---5---5--|


------------------------------------------------------------------|
----------------------------------------------///-///-------------|
-----------------------------------------------5---7--///-///-----|
-------------------------------------------------------8---7------|
pm-*-8-*-10-*-7--*-*-8-*-7-*-8---*-*-8-*-7-*-8--------------------|
-7-7---7----7----8-8---8---8-----5-5---5---5----------------------|


Riff 2 part A 0:17-0:22
------------------------------------------------------------|
------------------------------------------------------------|
------------------------------------------------------------|
-*---****-*-*-*----*-*-*--*-*-*-*---****-*-*-*--*---*---*---|
-0---0000-0-0-0----0-0-0--0-0-0-0---0000-0-0-0--0---0---0---|
-0---0000-0-0-0----0-0-0--0-0-0-0---0000-0-0-0--0---0---0---|


0:23-0:39                            
               L2nd time    L repeats but ends w/ 10 on 3rd not 4th
LLLLLLLLLLLLL--RRRRRRRRRRRR--RRRRRRRRRRRRRRRRRRRRRRRRRRRRRRRR-----|
------------------------------------------------------------------|
-*-*-*---*--*--*-*-*---*-*----*--*-*----*--*---*--*-*----*-14-----|
-8-7-0-*-0-10--8-7-0-*-0-10--12-10-0--*-0-14--12-10-0--*-0--------|
-------8-------------8---------------12---------------12----------|
------------------------------------------------------------------|

Riff 3 w/Riff 2 part A repeats 2 times
------------------------------------------------------------|
------------------------------------------------------------|
-*-*-*---*--*--*-*-*---*-10--*-*-*---*--*--10-8-7-----------|
-8-7-0-*-0-10--8-7-0-*-0-----8-7-0-*-0-10---------10-8-7----|
-------8-------------8-------------8------------------------|
------------------------------------------------------------|

-----------------------------------------------------------|
-----------------------------------------------------------|
-*-*-*---*--*--*-*-*---*-10--*-*-*---*--*------------------|
-8-7-0-*-0-10--8-7-0-*-0-----8-7-0-*-0-10--10-8-7----------|
-------8-------------8-------------8--------------10-8-7---|
-----------------------------------------------------------|

Riff 4 interlude
-L plays----|--R plays--|
------------|-----------|
------------|-----------|
------------|-7----8----|
--8----10---|-8----10---|
--8----10---|-----------|

Riff 1;
Higher melody   0:50-0:58
------------------------------------------------------------|
------------------------------------------------------------|
-----------------------------------------------7--5---------|
-----7---8-----------7-------7-----7---5---7----------7---5-|
-*-*---*---*-10--*-*--*-10-*---*-*---*---*---*---*--*---*---|
-7-7---7---7-----8-8--8----8---5-5---5---5---5---5--5---5---|

---------------------------------------------///-///--------|
---------------------------------------------5---6---///-///|
------------------------------------------------------7---5-|
-----7---8-----------7-------7-----7---5---7----------------|
-*-*---*---*-10--*-*--*-10-*---*-*---*---*------------------|
-7-7---7---7-----8-8--8----8---5-5---5---5------------------|

Riff 5 right side  2 times  0:59-1:13
---------------------------------------------------|
---------------------------------------------------|
---------------------------------------------------|
-----7------8-----7-----5-----------5--------------|
-*-*---*-*----*-*---*-*---*-*-8-*-*---*-*-8-*-*-7--|
-0-0---0-0----0-0---0-0---0-0---0-0---0-0---0-0----|

Riff 5 left side 2 times
---------------------------------------------------|
---------------------------------------------------|
---------------------------------------------------|
------------5--------------------------------------|
-*-*-8-*-*----*-*-8-*-*-7-*-*-5-*-*-7-*-*-5-*-*-4--|
-0-0---0-0----0-0---0-0---0-0---0-0---0-0---0-0----|

Riff 6 1:14-1:18
RRRRRRRRRRRRLLLLLLLLLLLLLRRRRRRRRRRRRRLLLLLLLLLLLLL-|
----------10-----------10-----------10-----------10-|
----------13-----------13-----------13-----------13-|
----------------------------------------------------|
*-*-*-*-*----*-*-*-*-*----*-*-*-*-*----*-*-*-*-*----|
0-0-0-0-0----0-0-0-0-0----0-0-0-0-0----0-0-0-0-0----|


Riff 7 left side 2 times 1:18-1:34
--------------------------------------------------|
--------------------------------------------------|
--------------------------------------------------|
*****--*****--*********------7-----7--------------|
00000--00000--000000000--7-8---7-8---7-8----------|
00000--00000--000000000---------------------------|

2 times
--------------------------------------------------|
--------------------------------------------------|
------------------------------*------*--ph-\------|
*****--*****--*********--*-*--7-*-*--7--7---------|
00000--00000--000000000--7-8----7-8---------------|
00000--00000--000000000---------------------------|

Riff 7 right side 2 times 1:18-1:34
--------------------------------------------------|
--------------------------------------------------|
--------------------------------------------------|
*****--*****--*********--------10-------10--------|
00000--00000--000000000--10-12----10-12----10-12--|
00000--00000--000000000---------------------------|

2 times
--------------------------------------------------|
--------------------------------------------------|
--------------------------------*--------*--ph----|
*****--*****--*********---*--*-10--*-*--10--10-\--|
00000--00000--000000000--10-12----10-12-----------|
00000--00000--000000000---------------------------|

Riff 4 interlude
-L plays----|--R plays--|
------------|-----------|
------------|-----------|
------------|-7----8---5|
--8----10--7|-8----10--7|
--8----10--7|-----------|

Riff 1

Riff 8 1:56-2:20
-----------------------------------------------------------------|
-----------------------------------------------------------------|
------*-*-*---*--*--*-*-*---*-10--*-*-*---*--*--10-8-7-----------|
------8-7-0-*-0-10--8-7-0-*-0-----8-7-0-*-0-10---------10-8-7----|
0-----------8-------------8-------------8------------------------|
0----------------------------------------------------------------|

----------------------------------------------------|
----------------------------------------------------|
-*-*-*---*--*--*-*-*---*-10-10-8-7------------------|
-8-7-0-*-0-10--8-7-0-*-0-----------10-8-7--------ph~|
-------8-------------8--------------------10-8-7-7--|
----------------------------------------------------|

Riff 3 2 times


Riff 9 2 times 2:20-2:33
--------------------------------------------------------|
--------------------------------------------------------|
--------------------------------------------------------|
-*---****-*-*-*---*-*-*-10--*---****-*-*-*---*-*-*--8---|
-0---0000-0-0-0---0-0-0-12--0---0000-0-0-0---0-0-0--10--|
-0---0000-0-0-0---0-0-0-10--0---0000-0-0-0---0-0-0--8---|

rythm is all open pm's during solo
                                             __
Riff 10  solo                               /  \
--------------___----------12----15---12-15-12---------|
-------------/   \---13------------------------13------|
---12-14----14-15-14----14----14---14-------------14---|
12-------12--------------------------------------------|
-------------------------------------------------------|
-------------------------------------------------------|
                                                ________
                                               /        \
--------------___----------------------12-13-12-13-12-13-12-|
-------------/   \---13-------------13----------------------|
---12-14----14-15-14----14----12-14-------------------------|
12-------12----------------12-------------------------------|
------------------------------------------------------------|
------------------------------------------------------------|
                                         __
                                        /  \
--------------___----------12----15---12-15-12---------|
-------------/   \---13------------------------13------|
---12-14----14-15-14----14----14---14-------------14---|
12-------12--------------------------------------------|
-------------------------------------------------------|
-------------------------------------------------------|


----------------___----------17------------15------------|
---------------/   \--13--------15--18-15-----15-17-13---|
----12-14----14-15-14----14------------------------------|
-12-------12---------------------------------------------|
---------------------------------------------------------|
---------------------------------------------------------|

harmonies repeated til end

higher harmony
-------------------17-15-18-15-----------15-17-15--|
-------13----17-13-----------------13-17-----------|
----14----14--------------------14-----------------|
-15------------------------------------------------|
---------------------------------------------------|
---------------------------------------------------|


-20-18-17--------15-17-15--24-20----------20-22-20-|
-----------17-18-----------------22-20-22----------|
---------------------------------------------------|
---------------------------------------------------|
---------------------------------------------------|
---------------------------------------------------|

lower harmony
-------------------13-12-15-12----------12-13-12---|
-------------13----------------------13------------|
-------14-------14----------------14---------------|
-12-15----15-------------------15------------------|
---------------------------------------------------|
---------------------------------------------------|

-17-15-13-------12-13-12--20-17------------17-18-17|
----------13-15------------------17--15-18---------|
---------------------------------------------------|
---------------------------------------------------|
---------------------------------------------------|
---------------------------------------------------|

Tap to rate this tab
 
# A B C D E F G H I J K L M N O P Q R S T U V W X Y Z