Guitaretab - guitar tabs
Song name
# A B C D E F G H I J K L M N O P Q R S T U V W X Y Z

Dead Man In Reno - From Here I Can See The Shore tab

Tuning:drop B
This is my first tab and i'm pretty sure it's right but not 100%
www.deadmaninreno.com

Verse
Both Guitars
C|--------------------------------------|
G#|-------------------------------------|
E|--------------------------------------|
B|--------------------------------------|
F#|---8-10-7---8-7-8---8-7-8--12-10-8-7-|
B|--00-0-0---00-0-0--00-0-0--0-0-0-0-0--|
Pm  ** * *   ** * *  ** * *  * * * * *

C|------------------------------------|
G#|-----------------------------------|
E|------------------------------------|
B|--------------------------12-10-8-7-|  Repeat Both x2
F#|---8-10-7---8-7-8---8-7-8----------|
B|--00-0-0---00-0-0--00-0-0-----------|
PM  ** * *   ** * *  ** * *

1st Breakdown

Guitar 1
C|--------------------------------------------|
G#|-------------------------------------------|
E|--------------------------------------------|
B|--------------------------------------------|
F#|--------------------------8107878878121087-|
B|-0-0000000-000-000-0000000------------------|
PM * ******* *** *** ******* ****************

C|------------------------------------|
G#|-----------------------------------|
E|------------------------------------| (repeat the 8107...Part x3)
B|---------------121087---------------|
F#|----8107878878---------------------|
B|------------------------------------|
PM     ****************

Guitar 2
C|------------------------------------|
G#|-----------------------------------|
E|------------------------------------|
B|------------------------------------| (Do it x4 ring out open on last time)
F#|-----------------------------------|
B|-0-0000000-000-000-0000000----------|
PM * ******* *** *** *******

Verse II
Both Guitars
C|--------------------------------------|
G#|-------------------------------------|
E|--------------------------------------|
B|--------------------------------------|
F#|---8-10-7---8-7-8---8-7-8--12-10-8-7-|
B|--00-0-0---00-0-0--00-0-0--0-0-0-0-0--|
Pm  ** * *   ** * *  ** * *  * * * * *

C|------------------------------------|
G#|-----------------------------------|
E|------------------------------------|
B|--------------------------12-10-8-7-|  Repeat Both x2
F#|---8-10-7---8-7-8---8-7-8----------|
B|--00-0-0---00-0-0--00-0-0-----------|
PM  ** * *   ** * *  ** * *

Bridge
Both Guitars
C|------------------------------------|
G#|-----------------------------------|
E|------------------------------------|
B|------------------------------------| (Repeat x2)
F#|---8--10--8--7--5--7--5-4----------|
B|--00-00--00-00-00-00-00-00----------|
PM  ** **  ** ** ** ** ** **

2nd Breakdown
[ Tab from: http://www.guitaretab.com/d/dead-man-in-reno/85758.html ]
C|----------------------------------|
G#|-----9---9------9----9-----------|
E|------12--12-----12---12----------|(Do This Once But Guitar One And Two
B|----------------------------------| Switch Off)
F#|---------------------------------|
B|--0000--0000-0000-0000------------|
PM  ****  **** **** ****


C|------------------------------------------|
G#|-----------------------------------------|
E|------------------------------------------|
B|-----------------------------10---10------|(x2)
F#|-------------------------78----78--------|
B|--000000~-000~000~000000~-----------------|
PM  ******  *** *** ******

C|------------------------------------------|
G#|-----------------------------------------|
E|------------------------------------------|(x2)
B|-----------------------------10----10-12*-|
F#|-------------------------78----78--------|
B|--000000~-000~000~000000~-----------------|
PM  ******  *** *** ******  ** *  ** *

C|------------------------------------------|
G#|-----------------------------------------|
E|---10~-12~-9~-7~--------------------------|
B|---x---x---x--x---------------------------|
F#|--8~--10~ 7~-5~--------------------------|
B|------------------------------------------|

Verse III

C|--------------------------------------|
G#|-------------------------------------|
E|--------------------------------------|
B|--------------------------------------|
F#|---8-10-7---8-7-8---8-7-8--12-10-8-7-|
B|--00-0-0---00-0-0--00-0-0--0-0-0-0-0--|
Pm  ** * *   ** * *  ** * *  * * * * *

C|------------------------------------|
G#|-----------------------------------|
E|------------------------------------|
B|--------------------------12-10-8-7-|  Repeat Both x2
F#|---8-10-7---8-7-8---8-7-8----------|
B|--00-0-0---00-0-0--00-0-0-----------|
PM  ** * *   ** * *  ** * *

3rd Breakdown

Guitar 1
C|------------------------------------|
G#|-----------------------------------|
E|------------------------------------|
B|------------------------------------|
F#|--8107878878121087-----------------|
B|------------------------------------|
PM  *****************

C|------------------------------------|
G#|-----------------------------------|
E|------------------------------------| (repeat the 8107...Part x3)
B|---------------121087---------------|
F#|----8107878878---------------------|
B|------------------------------------|
PM     **********

Guitar 2
C|------------------------------------|
G#|-----------------------------------|
E|------------------------------------|
B|------------------------------------| (Do it x4 ring out open on last time)
F#|-----------------------------------|
B|-0-0000000-000-000-0000000----------|
PM * ******* *** *** *******

Then Comes This Little Solo Thing That I Haven't Tabbed out yet bu they do that till the end of the song
Advertisement will be closed in 10 seconds