Song name
# A B C D E F G H I J K L M N O P Q R S T U V W X Y Z

Dead Mans Bones - Lose Your Soul tab

Artist: Dead Man's Bones
Song: Lose Your Soul
Tabbed by Airbourne775 (Lynn)
Tabbed October 5, 2011


*Tuning: Flat (Half Step Down)


If you want you can play it this way.. (strum for the chorus bit)

d#|------------------------------------------------------------------------|
a#|------------------------------------------------------------------------|
f#|------------------------------------------------------------------------|
c#|-----7---7---7---7----5---5---5---5----3---3---3---3----2---2---2---2---|
g#|------------------------------------------------------------------------|
d#|---5---5---5---5----3---3---3---3----1---1---1---1----0---0---0---0-----|

or just strum along..

d#|-------------------------------|
a#|-------------------------------|
f#|-------------------------------|
c#|---7------5------3------2------|
g#|---7------5------3------2------|
d#|---5------3------1------0------|


Enjoy!
Tap to rate this tab
 
# A B C D E F G H I J K L M N O P Q R S T U V W X Y Z