Song name
# A B C D E F G H I J K L M N O P Q R S T U V W X Y Z

Dead Meadow - The White Worm tab

-------------------------------------------------------------------------------
			     THE WHITE WORM - Dead Meadow
-------------------------------------------------------------------------------
Tabbed by: dinomatt707
Email: mb208207@ohio.edu

my first tab. this is as far as i could get but its something. One of the best 
songs on "Howls from the Hills"

| h  hammer-on
| p  pull-off
| /  slide up
  b  bend

Tuning: standard

e|-------------------------------------------------------------|
B|-------------------------------------------------------------|
G|-------------------------------------------------------------| x6
D|---------------------5--8--5---------------------------------|
A|-----5h7--------5h7-----------3--1-----1-----1--/7--5--------|
E|--3-------6--3----------------------3-----3------------7--5--|


e|-----|
B|-----|
G|-----| play this at the end of the sixth time 
D|-----|
A|--9--|
E|-----|

 1:07
e|-------------------------------------------------------|
B|-------------------------------------------------------|
G|-------------------------------------------------------|
D|-----5--5-----5-------------5--5-----5-----------------|
A|-------------------------------------------------------|
E|--3--------3-----1-1-1-1/3--------3-----6b--1-1-1-1/3--|


e|------------------------------------------------------------------------|
B|------------------------------------------------------------------------|
G|------------------------------------------------------------------------|
D|--5--5-----5-------------5--5-----5-------------------------------------|
A|------------------------------------------------------------------------|
E|--------3-----1-1-1-1/3--------3----------------------------------------|


e|-------------------------------------------------------|
B|-------------------------------------------------------|
G|-------------------------------------------------------|
D|-----5--5-----5-------------5--5-----5-----------------|
A|-------------------------------------------------------|
E|--3--------3-----1-1-1-1/3--------3-----6b--1-1-1-1/3--|


e|-----------------------------------------------------|
B|-----------------------------------------------------|
G|-----------------------------------------------------|
D|--5--5-----5-------------5--5-----5-------5----------|
A|-------------------------------------5h7-----7p5-----|
E|--------3-----1-1-1-1/3--------3------------------6--|

 1:51
e|-------------------------------------------------------|
B|-------------------------------------------------------|
G|-------------------------------------------------------|
D|-----5--5-----5-------------5--5-----5-----------------|
A|-------------------------------------------------------|
E|--3--------3-----1-1-1-1/3--------3-----6b--1-1-1-1/3--|


e|------------------------------------------------------------------------|
B|------------------------------------------------------------------------|
G|------------------------------------------------------------------------|
D|--5--5-----5-------------5--5-----5-------------------------------------|
A|------------------------------------------------------------------------|
E|--------3-----1-1-1-1/3--------3----------------------------------------|

 2:14
e|---------------------------------------------------------------------------|
B|---------------------------------------------------------------------------|
G|---------------------------------------------------------------------------|
D|--5---------8--5-----------------------------------------------------------|
A|--5--5-5h7--------7p5------------------------------------------------------|
E|--3------------------------------------------------------------------------|






===============================================================================
Tap to rate this tab
# A B C D E F G H I J K L M N O P Q R S T U V W X Y Z