Song name
# A B C D E F G H I J K L M N O P Q R S T U V W X Y Z

Dead Meadow - Sleepy Silver Door tab

[pre]Sleepy Silver Door

Intro/ Main Riff
------------------------------------------------|
------------------------------------------------|
------------------------------------------------|
------------------------------------------------|
-----/9-9-7-7h9---------------------------------|
-2-2------------11/9-9-9/11/9-7--5h7-5h7-/9-7-5-|

Verse
---------------------------------|
---------------------------------|
---------------------------------|
---------------------------------| just play that
-9-9-9-9-9-9-9-9-9-9-9-9-9-9-9-9-| note for ages
---------------------------------|

then
------------------|
-9----9-----------|
-9----9-----------|
-9----9-----------|
-7----7-----------|
------------7-5-0-|

Main RIff
------------------------------------------------|
------------------------------------------------|
------------------------------------------------|
------------------------------------------------|
-----/9-9-7-7h9---------------------------------|
-2-2------------11/9-9-9/11/9-7--5h7-5h7-/9-7-5-|

Verse #2
---------------------------------|
---------------------------------|
---------------------------------|
---------------------------------| just play that
-9-9-9-9-9-9-9-9-9-9-9-9-9-9-9-9-| note for ages
---------------------------------|

then
------------------|
-9----9-----------|
-9----9-----------|
-9----9-----------|
-7----7-----------|
------------7-5-0-|

Back to main riff
------------------------------------------------|
------------------------------------------------|
------------------------------------------------|
------------------------------------------------| X3
-----/9-9-7-7h9---------------------------------|
-2-2------------11/9-9-9/11/9-7--5h7-5h7-/9-7-5-|

4th time
----------------------------------------------------------------------|
----------------------------------------------------------------------|
----------------------------------------------------------------------|
----------------------------------------------------------------------|
-----/9-9-7-7h9-------------------------------------------------------|
-2-2------------11/9-9-9/11/9-7--5h7-5h7-/9-7--5h7-5h7-9-7-7--9-10-11-|

Chorus
---------------------------------------------------------------------|
---------------------------------------------------------------------|
---------------------------------------------------------------------|
-7-7-7-7-7-7-7-7--9-9-9-9-9-9-9-9--4-4-4-4-4-4-4-4-22222222222222222-|
-7-7-7-7-7-7-7-7--9-9-9-9-9-9-9-9--4-4-4-4-4-4-4-4-22222222222222222-|
-5-5-5-5-5-5-5-5--7-7-7-7-7-7-7-7--2-2-2-2-2-2-2-2-00000000000000000-|

then
-------|
-------|
-------|
-------|
-------|
-7-5-0-|

Solo 3:53 - 4:07
---------------------------------------------------------------------------|
---------------------------------------------------------------------------|
---------------------------------------------------------------------------|
-2h4p2h4p2h4p2h4p2h4p2h4p2h4p2h4p2h4p2h4p2h4p2h4p2h4p2h4p2h4p2h4p2h4p2h4p2-
---------------------------------------------------------------------------|
---------------------------------------------------------------------------|
4:07 -
-------------------------------------------------------------------|
-----------------------------------------------12b(14)r12-10h12p10-|
-----------------------4/6-/9-6-4-6-4-2h4-2-2----------------------|
-9b(11)-9-7-4-7p4-2-4----------------------4-----------------------|
-------------------------------------------------------------------|
-------------------------------------------------------------------|

Last Riff
---------------------------|
---------------------------|
---------------------------|
---------------------------|
---------------------------|
-5-2-5-/9-7h9-9---7h9-12-9-|[/pre]
Tap to rate this tab
# A B C D E F G H I J K L M N O P Q R S T U V W X Y Z