Song name
# A B C D E F G H I J K L M N O P Q R S T U V W X Y Z

Dead Meadow - Beyond The Fields We Know tab

ntro/ Main Riff
---------------------------------------------------------|
-10h12-10--7h10-7-------------------10h12-10--7h10-7-----|
------------------7h9-7--4h7-4-----------------------7~~-|
-------------------------------7-4-----------------------|
---------------------------------------------------------|
---------------------------------------------------------|

Verse, series of notes made on wah pedal, just play notes similar to the intro

at 2:23
-0-0-0-0-|
-1-1-1-1-|
-0-0-0-0-|
-2-2-2-2-|
-3-3-3-3-|
---------|

Small Part
-------------------|
-------------------|
-------------------|
-------------------|
-----3-0---2-5h7---|
-0-3-------------5-|

Riff 2
-------------------------------------------------------|
-------------------------------------------------------|
------------------------------------------------7------|
-----------------------------------------7/9-7-9-9-----|
---5-77-5--5---7/9/7--0h2-5-----5-77-5-------------7-5-|
-0--------7--0------0---------0--------7---------------|

-----------------------------------------------|
-----------------------------------------------|
-----------------------------------------------|
-----------------------------------------------|
--5-77-5---5---7/9/7--0h2-5---5-77-5--5-5-5----|
-0-------7---0------0--------0-------7-7-7-7-5-|

Riff 3
-------------------------------------------|
-------------------------------------------|
-------------------------------------------|
---------/999-7-/999-7---------555-7-444-0-|
-777-5-7---------------777-5-7-------------|
-------------------------------------------|

----------------------------------------|
----------------------------------------|
----------------------------------------|
---------/999-7-/999-7------------------|
-777-5-7---------------777-5-7-55555555-|
----------------------------------------|

Breakdown where bass plays repeated riff (5:15)
-7h10p7-------------------------------------------|
--------7h10p7h10p7-------------------------------|
--------------------7h9---------------------------|
------------------------7h9-5h7-0~~~~~~2~~~~~~~~~-|
--------------------------------------------------|
--------------------------------------------------|

Solo jam, I really can't be bothered to figure this out, it's really nice to improvise
over anyway, just use the same scale as what you have been playing[/pre]
Tap to rate this tab
 
# A B C D E F G H I J K L M N O P Q R S T U V W X Y Z