Song name
# A B C D E F G H I J K L M N O P Q R S T U V W X Y Z

Dead Meadow - Greensky Greenlake tab

[pre]Intro/ Main riff
----5----7p4----------------|
----3-----------5-------8p5-|
----4-----------4-----------|
--4-4--4------4-4--6h7h9----|
-2----2------2--------------|
----------------------------|

Riff
-----------------------------------------------------|
-----------------------------------------------------|
-------6-4---4-2-----------------6-2---4p2---2-------|
-4-2-4----------4-2-4----4p2-2h4-----------4--4-2----|
-----------------------------------------------------|
-----------------------------------------------------|

-----------------------------------------------------|
-----------------------------------------------------|
-------6-4---4-2----------------------4-2---2--------|
-4-2-4----------4-2-4---4-7p4-7p4-2-------4---4-2----|
-----------------------------------------------------|
-----------------------------------------------------|

-----------------------------------------------------|
-----------------------------------------------------|
-------6-4---4-2-----------------6-2---4p2---2-------|
-4-2-4----------4-2-4----4p2-2h4-----------4--4-2----|
-----------------------------------------------------|
-----------------------------------------------------|

-----------------------------------------------------|
-----------------------------------------------------|
-------6-4---4-2----------------------4p2---2--------|
-4-2-4----------4-2-4---4-7p4-7p4-2-------4---4------|
------------------------------------------------2----|
-----------------------------------------------------|

Solo
------------------------------------------------------|
------------------------------------------------------|
-9h11-9/6-9p6-4h6-4/2/4--9h11-11b-11-11-9h11-11b-9h11-|
------------------------------------------------------|
------------------------------------------------------|
------------------------------------------------------|

-------------------------------------------------------|
-------------------------------------------------------|
-9h11-9/6-9p6-4h6-4/2/4--2-4-2-4-2-4-2-4-2-4-2-4-2-4-2-|
-------------------------------------------------------|
-------------------------------------------------------|
-------------------------------------------------------|

------------------------------------------------------|
------------------------------------------------------|
-9h11-9/6-9p6-4h6-4/2/4--9h11-11b-11-11-9h11-11b-9h11-|
------------------------------------------------------|
------------------------------------------------------|
------------------------------------------------------|

------------------------------------------------------|
------------------------------------------------------|
-9h11-9/6-9p6-4h6-4/2/4--2-4-2-4-2-4-4b--2-4-2-4------|
------------------------------------------------------|
------------------------------------------------------|
------------------------------------------------------|

3:12 - 3:18
-00-00000--0-0000-|
-00-32320--3-2320-|
-00-00000--0-0000-| x2
-22-22222--2-2222-|
-22-22222--2-2222-|
-00-00000--0-0000-|

------------------------------------------------------|
------------------------------------------------------|
-9h11-9/6-9p6-4h6-4/2/4--9h11-11b-11-11-9h11-11b-9h11-|
------------------------------------------------------|
------------------------------------------------------|
------------------------------------------------------|

------------------------------------------------|
------------------------------------------------|
-9h11-11b-11-9h11-9/6-9p6-4h6p4-2h4-2h4-2h4-2h4-|
------------------------------------------------|
------------------------------------------------|
------------------------------------------------|

------------------------------------------------------|
------------------------------------------------------|
-9h11-9/6-9p6-4h6-4/2/4--9h11-11b-11-11-9h11-11b-9h11-|
------------------------------------------------------|
------------------------------------------------------|
------------------------------------------------------|

----------------------------------------------------------|
----------------------------------------------------------|
-14-13h14-14b-13-14b-13-14b-13h14p13-11h13p11-9-6h9-6-4-6-|
----------------------------------------------------------|
----------------------------------------------------------|
----------------------------------------------------------|

-00-00000--0-0000-|
-00-32320--3-2320-|
-00-00000--0-0000-| x2
-22-22222--2-2222-|
-22-22222--2-2222-|
-00-00000--0-0000-|[/pre]
Tap to rate this tab
 
# A B C D E F G H I J K L M N O P Q R S T U V W X Y Z