Song name
# A B C D E F G H I J K L M N O P Q R S T U V W X Y Z

Dead Meadow - Rocky Mountain High tab

]Rocky Mountain High

Intro (something like this, use wah)
---------------------------------------------|
---------------------------------------------|
---------------------------------------------|
---------------------------------------------|
-0h2p0h2p---0h2p0h2p0h2p0h2p0h2p0h2p0h2p0h2p-|
---------------------------------------------|

Main Riff
-------------------------------------------|
-------------------------------------------|
-------------------------------------------|
-------------------------------------------| X3
-------------------------------7p6-7p6-7p6-|
-0-2-0-2-7-7h9p7-5-4-5-4-5-7-5-------------|

4th time
-------------------------------------|
-------------------------------------|
-------------------------------------|
-------------------------------------|
-------------------------------7p6-5-| hold
-0-2-0-2-7-7h9p7-5-4-5-4-5-7-5-------|

Verse
-0-000-------444---------0-----------------444-------|
-5-555-------444---------5-----------------444-------|
-6-666-------444---------6-----------------444-------|
-6-666-9-7-6-666-44-77---6--9h11p9-6-9-7-6-666-44-77-|
-4-444-9-7-6-666-44-77---4-----------9-7-6-666-44-77-|
-------7-5-4-444-22-55---------------7-5-4-444-22-55-|
rake
-0-----------------444--------------2--------|
-5-----------------444--------4------2-----2-|
-6-----------------444--------4-------2----2-|
-6--9h11p9-6-9-7-6-666-44-77--4-hold---4---2-|
-4-----------9-7-6-666-44-77--2---------4--0-|
-------------7-5-4-444-22-55-------------2---|

Fill
-----------------|
-----------------|
-----------------|
-----------------|
-----------------|
-7-5-7-5-7-5-7-5-|

Solo Riff
-----------------------------------------------------------|
-----------------------------------------------------------|
-----------------------------------------------------------|
------------------------------------6p5-6-5-4-6/8-8-8/11/8-|
-11h13-11h13-6x6h8p6--4-3-4-3-4/6/4------------------------|
-----------------------------------------------------------|

play this part fast
--------------------------------------------|
--------------------------------------------|
--------------------------------------------| play all
-6-8p6-4-6p4-2-4---2-4-2-2------------------| twice
------------------------4-4---2-4-2-4-2-4-2-|
--------------------------------------------|

Riff #2
---------------------------------------|
---------------------------------------|
---------------------------------------|
---------------------------------------| X3
-------------7-6-7-6-7-6-7-------------|
-2---2---5-5---------------5-4-5-4-5-7-|

4th time

---------------------------------------|
---------------------------------------|
---------------------------------------|
---------------------------------------|
-------------7-6-7-6-7-6-7-6-7---7-6-5-|
-2---2---5-5---------------------------|

back to verse
Tap to rate this tab
# A B C D E F G H I J K L M N O P Q R S T U V W X Y Z