Song name
# A B C D E F G H I J K L M N O P Q R S T U V W X Y Z

Dead Meadow - Dusty Nothing tab

Dusty Nothing by Dead Meadow

Play this with a fuzz pedal

Intro Riff
e---------------------------------------|
B---------------------------------------|
G------------------2-4-2----------------|
D----4---2-1-2--4---------4-2-4--2--4---|
A---------------------------------------|
E-2-------------------------------------|

e---------------------------------------|
B---------------------------------------|
G---------------------------------------|
D--2--2-1---1---------------------------|
A---------4---4-------------------------|
E---------------5-----------------------| (x4)

Verse Riff
e---------------------------------------|
B---------------------------------------|
G---------------------------------------|
D-4--4---2-----------4----2-4---1-2-1---|
A-4--4------4--2-----4--4---------------|
E-2--2------------5--2----------------5-| (x2)

e---------------------------------------|
B---------------------------------------|
G---------------------------------------|
D--9--7---4-7--9--7--4-7----------------|
A--9--7---4-7--9--7--4-7----------------|
E--7--5---2-5--7--5--2-5----------------|

e-----------------------------------------|
B-----------------------------------------|
G-----------------------------------------|
D-4--4---2-----------4----2-4------2-1----|
A-4--4------4--2-----4--4-----------------|
E-2--2------------5--2-----------------5--|

I cannot figure out the solo, although it is played with a fuzz pedal with a wah pedal.
Tap to rate this tab
 
# A B C D E F G H I J K L M N O P Q R S T U V W X Y Z