Song name
# A B C D E F G H I J K L M N O P Q R S T U V W X Y Z

Dead Milkmen - Smokin Banana Peels tab

Main Verse Riff:
---------------
   F#  E    D        F#  E    G
E---9--7----5---------9--7----10-10---|
B--11--9----7--------11--9----12-12---|
G--11--9----7--------11--9----12-12---|
D--11--9----7--------11--9----12-12---|
A---9--7----5---------9--7----10-10---|
E-------------------------------------|


Other Riff:
----------
Play each riff twice.

E-------------------------|
B-------------------------|
G-------------------------|
D--4-2------2-4-2---------|
A-------2-5-------5-2-----|
E-------------------------|

E-------------------------|
B-------------------------|
G--4-2------2-4-2---------|
D-------2-5-------5-2-----|
A-------------------------|
E-------------------------|


Verse:
Smokin' banana peels, see how it feels
Living is easy with ice cubes
The world is swimmin' with electric eels
Talk seriously to me brother
Smokin' banana peels, savin' the seals
There are four me's living all together
Got to keep an even keel
You've got to take life serially
Smokin' banana peels in between meals
I was all pumped up about the iron
Let's all pray get down and kneel
Smokin' banana peels sound like this


Post Verse:
----------
    G           C        Eb        F
E--10-10-10-10--3-3-3-3--6-6-6-6---8--8--8--8---|
B--12-12-12-12--5-5-5-5--8-8-8-8--10-10-10-10---|
G--12-12-12-12--5-5-5-5--8-8-8-8--10-10-10-10---|
D--12-12-12-12--5-5-5-5--8-8-8-8--10-10-10-10---|
A--10-10-10-10--3-3-3-3--6-6-6-6---8--8--8--8---|
E-----------------------------------------------|

    G                        Bb
E--10-10-10-10--10-10-10-10--6-6-6-6--6-6-6-6---|
B--12-12-12-12--12-12-12-12--6-6-6-6--6-6-6-6---|
G--12-12-12-12--12-12-12-12--7-7-7-7--7-7-7-7---|
D--12-12-12-12--12-12-12-12--8-8-8-8--8-8-8-8---|
A--10-10-10-10--10-10-10-10--8-8-8-8--8-8-8-8---|
E----------------------------6-6-6-6--6-6-6-6---|

    F       Bb        Eb        F           G
E---1-------6-6-------6-6-------8--8-------10---|
B---2-------6-6-------8-8------10-10-------12---|
G---3-------7-7-------8-8------10-10-------12---|
D---3-------8-8-------8-8------10-10-------12---|
A---2-------8-8-------6-6-------8--8-------10---|
E---1-------6-6---------------------------------|

    G
E--10-10----------------------------------------|
B--12-12----------------------------------------|
G--12-12-.....-etc--.......---------------------|
D--12-12----------------------------------------|
A--10-10----------------------------------------|
E-----------------------------------------------|

The timing is even throughout, I've just divided into
blocks of 4 strums so that it's easier to follow and count.


"Mellow" Bit:
------------
Bb     Eb       Bb     Eb
Mellow, it's so mellow
Bb     Eb       Bb     Eb
Mellow, it's so mellow
G   Bb        Eb      F
No!  It's too mellow!  ya ya ya ya ya ya ya ya ya ya
G   Bb        Eb      F
No!  It's too mellow!  ya ya ya ya ya ya ya ya ya ya

Play all of that twice.


Post Verse Again:

Verse:
Smokin' banana peels, nothin' is real
Mites are living in your eyelashes
People are makin' important deals
They're my fingernails and I'm keeping em
Smokin' banana peels, savin' the seals
(???)
Up and down between your heels
Dip your breasts in shimmering lip balm
Talk to me about Elvis
Take Elvis for walk and shut up
Tap to rate this tab
# A B C D E F G H I J K L M N O P Q R S T U V W X Y Z